» » »

Misc Soundtrack, Lord Of The Rings Tabs (ver.3)

Artists:  A B C D E F G H I J K L M N O P Q R S T U V W X Y Z # 

Lord Of The Rings Tabs (ver.3)

Misc Soundtrack Tabs
 Rating:
4/5 (4 votes)
Lord Of The Rings lessons Tabs too difficult? Try these video lessons and learn fast
1
                (Theme)
-------------------------------------------------------------------------------
                             LOTR improvisation - LOTR
-------------------------------------------------------------------------------

Tuning:eBGDAE

this is my improvisation of playing a beautiful lord of the rings song.
it contains the shire theme and the lord of the rings theme. but this time tuned to 
so they make one whole song.

Part 1
e|---------------------------------------------------------------------------|
B|---------------------3--------6---------3----------------------------------|
G|-----3-------5----------------------------------5--------3-----------------|
D|---------------------------------------------------------------------------|
A|---------------------------------------------------------------------------|
E|---------------------------------------------------------------------------|

e|--------------------------3--------6---------3-----------------------------|
B|-----3--------6-----------------------------------------6---------3--------|
G|---------------------------------------------------------------------------|
D|---------------------------------------------------------------------------|
A|---------------------------------------------------------------------------|
E|---------------------------------------------------------------------------|

e|---------------------------------------------------------------------------|
B|----4p3--------------------------------------------------------------------|
G|---------------5-----------------------------------------------------------|
D|---------------------------------------------------------------------------|
A|---------------------------------------------------------------------------|
E|---------------------------------------------------------------------------|

Part 2
e|---------------------------------------------------------------------------|
B|------------------------3--------6--------3--------------------------------|
G|-------3------5--------------------------------------5----------3h5p3------|
D|---------------------------------------------------------------------------|
A|---------------------------------------------------------------------------|
E|---------------------------------------------------------------------------|

e|----------------------------3----------------------------------------------|
B|-------3--------6--------------------6---------3----------1----------------|
G|---------------------------------------------------------------------------|
D|---------------------------------------------------------------------------|
A|---------------------------------------------------------------------------|
E|---------------------------------------------------------------------------|

Part 3
e|---------------------------------------------------------------------------|
B|---------------------------------------------------------------------------|
G|----------------------------------5---7/8---8---7-----------7---5---3---2--|
D|----5---5---5---3---3---3---5-----------------------8---8------------------|
A|---------------------------------------------------------------------------|
E|---------------------------------------------------------------------------|

Part 4
e|---------------------------------------------------------------------------|
B|---------------------------------------------------------------------------|
G|--------------------------------5---7/8---7---9/10---9---11/12~------------|
D|----5---5---5---3---3---3---5----------------------------------------------|
A|---------------------------------------------------------------------------|
E|---------------------------------------------------------------------------|

| /  slide up
| \  slide down
| h  hammer-on
| p  pull-off
| ~  vibrato
            
Submit corrections

comments powered by Disqus
↑ Back to top | Misc Soundtrack Tabs for Lord Of The Rings. Lyrics for acoustic guitar and electric guitar. 1 Tablatures and chords are parodies/interpretations of the original songs. You may use it for private study, scholarship, research or language learning purposes only