» » »

Misc Soundtrack, Lord Of The Rings - In Dreams Tabs (ver.1)

Artists:  A B C D E F G H I J K L M N O P Q R S T U V W X Y Z # 

Lord Of The Rings - In Dreams Tabs (ver.1)

Misc Soundtrack Tabs
Rating:
0/5 (0 votes)
Lord Of The Rings - In Dreams lessons Tabs too difficult? Try these video lessons and learn fast
                “In Dreams” – featured in “The Breaking of the Fellowship”
          Words & Music by Fran Walsh and Howard Shore

             (converted for Guitar by Felix Kumpmann)

Slowly, freely and harmoniously

                                    D          
e|------------------------------|----------------------------------|
H|------------------------------|----------------------------------|
G|------------------------------|-----------2----------------------|
D|------------------------0h2---|---4----------------------2h4p2---|
A|------------------------------|---5------------------------------|
E|------------------------------|---5------------------------------|
 (  1   +   2   +   3   +   4   |   1   +   2   +   3   +   4   +  )
                                    G           
e|------------------------------|----------------------------------|
H|------------------------------|---0---------------3---2----------|
G|--------------------------2---|---0-----------------------2------|
D|--0---0---------------4-------|---0------------------------------|
A|--0---------------------------|----------------------------------|
E|--2---------------------------|----------------------------------|
 (  1   +   2   +   3   +   4   |   1   +   2   +   3   +   4   +  )  
 
    D          A/E                  D          
E|------------------------------|----------------------------------|
H|------------------------------|----------------------------------|
G|------------------------------|-----------2----------------------|
D|--4------5\4--2-------0h2-----|---4-------------------------2/4--|
A|--0-----------3---------------|---5------------------------------|
E|--2-----------3---------------|---5------------------------------|
 (  1   +   2   +   3   +   4   |   1   +   2   +   3   +   4   +  ) 
                                    G                
e|------------------------------|----------------------------------|
H|------------------------------|---0------------------------------|
G|--------------------------2---|---0----------------2-------------|
D|--0---0---------------4-------|---0-----------------------4------|
A|--0---------------------------|----------------------------------|
E|--2---------------------------|----------------------------------|
 (  1   +   2   +   3   +   4   |   1   +   2   +   3   +   4   +  ) 
    A                               D              F#m
e|------------------------------|----------------------------------|
H|------------------------------|----------------------------------|
G|------------------------------|-----------2----------------------|
D|--2---------------------0h2---|---4---------------4-------2------|
A|--3---------------------------|---0---------------4--------------|
E|--3---------------------------|-------------------5--------------|
 (  1   +   2   +   3   +   4   |   1   +   2   +   3   +   4   +  )  
                       When the    cold    of      win  -   er

    G              D/F#             G               A
e|------------------------------|----------------------------------|
H|------------------------------|---0-------3-------2--------------|
G|------------------------------2---0---------------2-------2------|
D|--0---------------0-------4---|---0---------------2--------------|
A|--2---------------0-----------|----------------------------------|
E|--3---------------2-----------|----------------------------------|
 (  1   +   2   +   3   +   4   |   1   +   2   +   3   +   4   +  ) 
  Comes                   starless night   will    cov  -   er  




   D/F#        A/F                  D              F#m
e|------------------------------|----------------------------------|
H|------------------------------|----------------------------------|
G|------------------------------|-----------2----------------------|
D|--4-----------2---------0h2---|---4---------------4-------2------|
A|--5-----------4---------------|---5---------------4--------------|
E|--5-----------5---------------|---5---------------5--------------|
 (  1   +   2   +   3   +   4   |   1   +   2   +   3   +   4   +  ) 
      Day___________        In the   veil  -  ing     of      the
    

        G              D/F#             G             Bm/F#    D/F#
e|------------------------------|----------------------------------|
H|------------------------------|---0-------------------0----------|
G|----------------------------2-|---------------------------2------|
D|--0---------------0------4----|---0---------------0-------0---4--|
A|--2---------------0-----------|---2---------------2-------0------|
E|--3---------------2-----------|----------------------------------|
 (  1   +   2   +   3   +   4   |   1   +   2   +   3   +   4   +  ) 
      Sun                    we will  walk______________  in  bit- er      

       A/E             C/E           Bm/D             A/E
e|------------------------------|----------------------------------|
H|------------------------------|----------------------------------|
G|------------------------------|----------------------------------|
D|--2---------------------------|---0-------2-----------------0h2--|
A|--4---------------3-----------|---2---------------4--------------|
E|--5---------------3-----------|---2---------------5--------------|
 (  1   +   2   +   3   +   4   |   1   +   2   +   3   +   4   +  ) 
      Rain                             But     in      dreams__________
    
     Bm/F#            A/E              G               A
e|------------------------------|-----------0----------------------|
H|-------------------------0h2--|---3-----------3---2--------------|
G|------------------------------|---4---------------2-----------2--|
D|--4-------------------4-------|---5---------------2--------------|
A|--5---------------4-----------|---5------------------------------|
E|------------------5-----------|----------------------------------|
 (  1   +   2   +   3   +   4   |   1   +   2   +   3   +   4   +  ) 
                          I  can    hear_______________         your

       D              A/E             Bm/D             A/E
e|------------------------------|----------------------------------|
H|------------------------------|----------------------------------|
G|------------------------------|----------------------------------|
D|--4---------------2-------0h2-|---4------------------------0h2---|
A|--5---------------4-----------|---2---------------4--------------|
E|--5---------------5-----------|---2---------------5--------------|
 (  1   +   2   +   3   +   4   |   1   +   2   +   3   +   4   +  ) 
   Name______________      and in  dreams___________________________

    Gmaj7             Bm/F#           G               A
e|------------------------------|-------------------0-----------0--|
H|-------------------------0h2--|---3---------------2---------2----|
G|------------------------------|---4---------------2--------------|
D|--4---------------0---4-------|---5---------------2--------------|
A|--5---------------2-----------|---5------------------------------|
E|--7---------------------------|----------------------------------|
 (  1   +   2   +   3   +   4   |   1   +   2   +   3   +   4   +  ) 
 ____                  we  will    meet             a      -  

  
  Bm              G               D               F
e|--2--------------------2------|----------------------------------|
H|--3---------------3-----3-0-3-|----------------------------------|
G|--4---------------4-----------|----------------------------------|
D|--4---------------5-----------|---0---------------3--------------|
A|------------------5-----------|---0---------------3----------3-3-|
E|------------------------------|---2---------------1--------------|
 (  1   +   2   +   3   +   4   |   1   +   2   +   3   +   4   +  ) 
      Gain___________________________________________________________

    D                              Bb/D        F/C
e|------------------------------|----------------------------------|
H|------------------------------|----------------------------------|
G|-----------------------0h2----|---3------2p0-----------0h2-------|
D|--0---------------------------|--(4)----------3------------------|
A|--0-------0---0---------------|--(4)---------(3)-----------------|
E|--2---------------------------|--(2)---------(1)-----------------|
 (  1   +   2   +   3   +   4   |   1   +   2   +   3   +   4   +  ) 
   ___

    A7sus/D          Bb/D    C/E      D               F
e|------------------------------|----------------------------------|
H|------------------------------|----------------------------------|
G|--0---------------------------|----------------------------------|
D|------------------3-------2---|---0---------------3--------------|
A|--0---------------1-------3---|---0---------------3-------3--3---|
E|--0---------------1-----------|---2---------------1--------------|
 (  1   +   2   +   3   +   4   |   1   +   2   +   3   +   4   +  ) 
  
   
       D                              Bb/D          C/F
e|------------------------------|----------------------------------|
H|------------------------------|-----------------1----------------|
G|------------------------0h2---|---3-------2/3--------------------|
D|--0---------------------------|----------------------------2/4---|
A|--0-------0-0-----0-----------|----------------------------------|
E|--2---------------------------|----------------------------------|
 (  1   +   2   +   3   +   4   |   1   +   2   +   3   +   4   +  ) 
                                                         When the

    E              G#m              A              E/G#
e|------------------------------|----------------------------------|
H|----------0-------------------|-------------------------------0--|
G|--1---------------1-----------|---------------------------1------|
D|--2---------------1-------4---|---2---------------2--------------|
A|--2---------------2-----------|---4---------------2--------------|
E|------------------------------|---5---------------4--------------|
 (  1   +   2   +   3   +   4   |   1   +   2   +   3   +   4   +  ) 
     Seas     and    moun  - tains   fall                     and we

        A               B              E/G#            B/F#
e|----------------------0-------|----------------------------------|
H|--2-----------------------4---0----------------------------------|
G|--2---------------------------|---1------------------------------|
D|--2---------------4-----------|---2---------------4---------2/4--|
A|------------------5-----------|---2---------------6--------------|
E|------------------------------|-------------------7--------------|
 (  1   +   2   +   3   +   4   |   1   +   2   +   3   +   4   +  ) 
     Come_______________  to  end of days______________        in the

       E              G#m              A              E/G#
e|------------------------------|----------------------------------|
H|----------0-------------------|-------------------------------0--|
G|--1---------------1-----------|---------------------------1------|
D|--2---------------1-------4---|---2---------------2---2----------|
A|--2---------------2-----------|---4---------------2--------------|
E|------------------------------|---5---------------4--------------|
 (  1   +   2   +   3   +   4   |   1   +   2   +   3   +   4   +  ) 
   Dark     I      hear     a      call               call-ing  me

    A             C#m/G    E/G#    B/F#                         
e|------------------------------|----------------------------------|
H|--2-------------------2---0---|----------------------------------|
G|------------------------------1----------------------------------|
D|--2---------------2-------2---|---4-----------4---4---2---1------|
A|--4---------------4-------2---|---6------------------------------|
E|------------------------------|---7------------------------------|
 (  1   +   2   +   3   +   4   |   1   +   2   +   3   +   4   +  ) 
     There_____________   I  will go  there________   and back a  -
   
    E 
e|------------------------------|
H|------------------------------|
G|------------------------------|
D|--2---------------------------|
A|--2---------------------------|
E|--4---------------------------|
 (  1   +   2   +   3   +   4   )
  Gain.


Thank you very much indeed for trying my first tab.
I was in an effort to enable to play this song on guitar.
If you have suggestions or comments, please write me an
Have fun and success,
with kind regards
Felix Kumpmann
            

comments powered by Disqus
↑ Back to top | Misc Soundtrack Tabs for Lord Of The Rings - In Dreams. Lyrics for acoustic guitar and electric guitar. Tablatures and chords are parodies/interpretations of the original songs. You may use it for private study, scholarship, research or language learning purposes only