» » »

Last Of The Mohicans Tabs (ver.1)

Artists:  A B C D E F G H I J K L M N O P Q R S T U V W X Y Z # 

Last Of The Mohicans Tabs (ver.1)

Misc Soundtrack
Rating:
0/5 (0 votes)

Hard to play? Try these video lessons and learn fast.
                (Theme)
ok, guys,my mane is elena
this is my first time i am trying to write down tabs. 
This ia an easy way to play the last of mohicans music. i learn it by ear, so 
sorry for any mistakes.. :)


part A

e----------------------------------------------------------/
B-------------6-5----5------------------6-5----5-----------/
G-----------------7----7-5-7----------------7----7-5-7-----/
D-(5)-7--77--------------------5--7-77-------------------5-/
A----------------------------------------------------------/
E----------------------------------------------------------/


e----------------------------------/
B------555-8-555---------555-8-555-/
G--555------------7--555-----------/
D----------------------------------/
A----------------------------------/
E----------------------------------/

e-----------------------------------------------/
B-----6-666--5-6-8-666--5---555----5-8-5---5----/
G-7-5---------------------7------7-------7---7-5/
D-----------------------------------------------/
A-----------------------------------------------/
E-----------------------------------------------/

e--------------------------------------/
B----------6-5-------------6-5---5-----/
G--777-5-7-----7---777-5-7-----7---7-5-/
D----------------7---------------------/
A--------------------------------------/
E--------------------------------------/

part B

e---8---7-5-------5-----7--10---8-7---8-12---10-8-7-10---8--8p7p5-/
B-----------5---5-----5-------------------------------------------/
G-----------------------------------------------------------------/
D-----------------------------------------------------------------/
A-----------------------------------------------------------------/
E-----------------------------------------------------------------/

part C
e--8-7-5------8-7-5---12----5---7-12---8-7-10--8-8p7p5--/
B--------8-5--------8-----8---8-------------------------/
G-------------------------------------------------------/
D-------------------------------------------------------/
A-------------------------------------------------------/
E-------------------------------------------------------/

And then you start over again.
            
Hard to play? Try these video lessons and learn fast. | Correct




comments powered by Disqus
↑ Back to top | Tablatures and chords are parodies/interpretations of the original songs. You may use it for private study, scholarship, research or language learning purposes only