» » »

King Arthur Tabs (ver.1)

Artists:  A B C D E F G H I J K L M N O P Q R S T U V W X Y Z # 

King Arthur Tabs (ver.1)

Misc Soundtrack
Rating:
0/5 (0 votes)

Hard to play? Try these video lessons and learn fast.
                (Theme)
This is the vocal from "King Athur" that Bors' woman sings.  It's done by Caitlyn 
and here it is in guitar.

e------------------------------------------------------------------------|
B----------4--2-------------------------------4-4--2---------------------|
G-1--3/4-------------1/3--3-1-----1—3/4-------------1/3--1---------------|
D------------------4-----------------------------------4-----------------|
A------------------------------------------------------------------------|
E------------------------------------------------------------------------|
Land of bear and land of eagle, land that gave us birth and blessing,

e-----------------------------------------------------------|    (played slighty differently)
B----------4--2-------------------------------4-4--2--------|
G-1--3/4-------------1/3--3-1-----1—3/4-------------1/3--1--|
D------------------4-----------------------------------4----|
A-----------------------------------------------------------|
E-----------------------------------------------------------|
Land that called us ever homewards.  We will go home across the mountains.


e---------------------------------------------------------------------------|
B-7--6/7--9---4—6/7—7/6----7—6/7--9--9-6---2-6---4--------------------------|
G---------------------------------------------------------------------------|
D---------------------------------------------------------------------------|
A---------------------------------------------------------------------------|
E---------------------------------------------------------------------------|
We will go home, we will go home, we will go home across the mountains.


e------------------------------------------------------------------------|
B-7--6/7--9---4—6/7—7/6----7—6/7--9--------------------------------------|
G---------------------------------------------------1-1---1/3--3-1-------|
D------------------------------------------------------------------------|
A------------------------------------------------------------------------|
E------------------------------------------------------------------------|
We will go home, singing our songs, we will go home across the mountains.

e----------------------------------------------------------------------------|
B----------4-------------------------------------4-4--2----------------------|
G-1--3/4----1---------1/3--3-1-----1—3/4----------------1/3—3/1--------------|
D------------------4---------------------------------------4-----------------|
A----------------------------------------------------------------------------|
E----------------------------------------------------------------------------|
Hear our singing, hear our longing.  We will go home across the mountains.


e---------------------------------------------------------------------------|
B-7--6/7--9---4—6/7—7/6----7—6/7--9--9-6---2-6---4--------------------------|
G---------------------------------------------------------------------------|
D---------------------------------------------------------------------------|
A---------------------------------------------------------------------------|
E---------------------------------------------------------------------------|
We will go home, we will go home, we will go home across the mountains.


e------------------------------------------------------------------------|
B-7--6/7--9---4—6/7—7/6----7—6/7--9--------------------------------------|
G---------------------------------------------------1-1---1/3--3-1-------|
D------------------------------------------------------------------------|
A------------------------------------------------------------------------|
E------------------------------------------------------------------------|
We will go home, singing our songs, we will go home across the mountains.
            
Hard to play? Try these video lessons and learn fast. | Correct




comments powered by Disqus
↑ Back to top | Tablatures and chords are parodies/interpretations of the original songs. You may use it for private study, scholarship, research or language learning purposes only