» » »

Misc Soundtrack, Kill Bill Tabs (ver.3)

Artists:  A B C D E F G H I J K L M N O P Q R S T U V W X Y Z # 

Kill Bill Tabs (ver.3)

Misc Soundtrack Tabs
Rating:
0/5 (0 votes)
Kill Bill  lessons Tabs too difficult? Try these video lessons and learn fast
                (2)
(Theme)
----------------------------------------------------------------------------
         Kill Bill 2 Theme (Mexican Spaghetti Western - Chingon
----------------------------------------------------------------------------

Sorry but I forget what this song is actually called. I wrote it out one day
and tried to find the tab for it on here to double check it but couldn't find
it. Which is why I figured I'd try to tab it out for anyone else to enjoy.

Standard Tuning: E,B,G,D,A,E.

Acoustic Guitar...                                       
e|-------------------------|-----------------------------|
B|-10-10-10-10-8-----------|-10-10-10-10---10-10---------|
G|---------------10-9h10p9-|---------------------12p10-9-|
D|-------------------------|-----------------------------|
A|-------------------------|-----------------------------|
E|-------------------------|-----------------------------|

w./whistling & vocals...
e|----------------|------------------|-------------7-7-8-8-8/10\8-|
B|-10-10-10-10-10-|-10-10-10-7-7---7-|-10-10-10-10----------------|
G|----------------|------------------|----------------------------|
D|----------------|------------------|----------------------------|
A|----------------|------------------|----------------------------|
E|----------------|------------------|----------------------------|

e|-10-10-10-10\8-8-8-|-----------------|     4 count on cymbal then vocals &
B|-------------------|-10-10h12p10\9-9-|     drums kick in for approx. 10 sec.
G|-------------------|-----------------|     (chords in background also).
D|-------------------|-----------------|
A|-------------------|-----------------|
E|-------------------|-----------------|

Rhy. Fig.1 - 2 Guitars:(1st guitar plays one octave higher).             End Rhy.Fig.1   
e|-----------------|---------------|---------------|-----------------|---------------|
B|-----------------|---------------|---------------|-----------------|---------------|
G|---2-2-0-2-4-2-0-|-2-2-0-2-4-5-4-|-2-2-0-2-4-5-4-|-5p2-0---5p2-0---|---------------|
D|-2---------------|---------------|---------------|-------2-------2-|---------------|
A|-----------------|---------------|---------------|-----------------|-3-2-0---------|
E|-----------------|---------------|---------------|-----------------|---------------|

e|------------------------------|--------------------------|------------------|
B|-10-10---10-10-10-------------|--------------------------|-10/12-12h13-13---|
G|------------------9-9-9/11-11-|-11-11-11\9----------9/10-|------------------|
D|------------------------------|--------------10--7-------|------------------|
A|------------------------------|--------------------------|------------------|
E|------------------------------|--------------------------|------------------|

e|-10--------------------------------|        Same vocals/chords & drums as
B|----13-12h13p12\10h12---10h12p10\9-|        earlier.(approx. 10 sec.) Then
G|-----------------------------------|        repeat Rhy.Fig.1.
D|-----------------------------------|
A|-----------------------------------|
E|-----------------------------------|

Guitar 1 - Acoustic.
e|-----------------------------------|----------------|--8-7--7h8/10-10/12~|
B|-10-10-10-10-10-10\8-8-8\6-6-5h6p5-|----------------|10---10-------------|
G|-----------------------------------|---------------9|--------------------|
D|-----------------------------------|----------------|--------------------|
A|-----------------------------------|----------------|--------------------|
E|-----------------------------------|----------------|--------------------|
Guitar 2 - w./distortion.
e|-----------------------------------|----------------|--------------------|
B|-------------------------------10~~|~10-10h11~~10~~~|(10)~~~-------------|
G|-----------------------------9-9~~~|~---------------|--------------------|
D|-----------------------------------|----------------|--------------------|
A|-----------------------------------|----------------|--------------------|
E|-----------------------------------|----------------|--------------------|

Guitar 1.
e|(12)~~~~~~------------------|/15-15-15-13-12-12h13p12~|~~~~--------------|
B|----------------------------|-------------------------|------------------|
G|----------------------------|-------------------------|------------------|
D|----------------------------|-------------------------|------------------|
A|----------------------------|-------------------------|------------------|
E|----------------------------|-------------------------|------------------|
Guitar 2.
e|--------------8-7-----------|-------------------------|/12-12-12-12~~~~~~|
B|---10-13-10~~~----10-8-8/10~|(10)~~~~~~~~~~~~~~~~~~---|------------------|
G|-9-9------------------------|-------------------------|------------------|
D|----------------------------|-------------------------|------------------|
A|----------------------------|-------------------------|------------------|
E|----------------------------|-------------------------|------------------|

Guitar 1.
e|-----------------------------------| Keeps jumping back and forth between
B|---------10-10-10-10-8-------------| Acoustic (Guitar 1) & Electric w.dist
G|-----------------------10-9-9h10p9~| (Guitar 2)similar patterns and notes.
D|-----------------------------------| 
A|-----------------------------------|
E|-----------------------------------|
Guitar 2.
e|-10-12---------8-7-----------------|
B|---------10-10-----10~10/12\10~~~~~|
G|-----------------------------------|
D|-----------------------------------|
A|-----------------------------------|
E|-----------------------------------|

Then it goes back to the Vocal part before Rhy.Fig.1 but jumps to an
electric solo and an acoustic solo (impressive!) Slows down, speeds up,
slows down and that's about it. Uses pretty much the same notes throughout
the rest, not hard to figure out. Except that acoustic solo!

h hammer-on
p pull-off
/ slide up
\ slide down
~ sustain 
            

comments powered by Disqus
↑ Back to top | Misc Soundtrack Tabs for Kill Bill. Lyrics for acoustic guitar and electric guitar. Tablatures and chords are parodies/interpretations of the original songs. You may use it for private study, scholarship, research or language learning purposes only