» » »

Misc Soundtrack, Kill Bill 2 - The Chase Tabs (ver.1)

Artists:  A B C D E F G H I J K L M N O P Q R S T U V W X Y Z # 

Kill Bill 2 - The Chase Tabs (ver.1)

Misc Soundtrack Tabs
Rating:
0/5 (0 votes)
Kill Bill 2 - The Chase lessons Tabs too difficult? Try these video lessons and learn fast
                -------------------------------------------------------------------------------
The Chase (from Kill Bill vol. 2) - Alan Reeves, Phil Steele And Philip Brigham
-------------------------------------------------------------------------------

Tuning: normal

The song has 3 parts:

Part 1  
e|--------------------|
B|--------------------|
G|--------------------|
D|--------------------|
A|-7--5--4--3-3\2-2/--|
E|0--0--0--0----------|

Part 2
e|-------------------------|
B|-------------------------|
G|-------------------------|
D|-------------------------|
A|-7--9--10--12-12/14-14\--|
E|0--0--0---0--------------|

Part 3
e|-3---|-5---|-8---|-10---|
B|-3---|-5---|-8---|-10---|
G|-4---|-6---|-9---|-11---|
D|-5---|-7---|-10--|-12---|
A|-5---|-7---|-10--|-12---|
E|-3---|-5---|-8---|-10---|

Here is how it goes:
4x Part 1
2x Part 2
2x Part 1
2x Part 2
2x Part 1
2x Part 2
2x Part 1
1x Part 3
2x Part 1
2x Part 2
2x Part 1 
Fade out (part 1)



| /  slide up
| \  slide down
| h  hammer-on
| p  pull-off
| ~  vibrato
| +  harmonic
| x  Mute note
===============================================================================
            

comments powered by Disqus
↑ Back to top | Misc Soundtrack Tabs for Kill Bill 2 - The Chase. Lyrics for acoustic guitar and electric guitar. Tablatures and chords are parodies/interpretations of the original songs. You may use it for private study, scholarship, research or language learning purposes only