>
 >
Karekano Theme

Karekano Theme Guitar Tabs

Misc Soundtrack - Karekano Theme chords, tabs, tablatures, lyrics

Guitar lessons | Add/correct | Request | Top 50 tabs Artists:  A B C D E F G H I J K L M N O P Q R S T U V W X Y Z 0-9

Karekano Theme Guitar Tabs – Misc Soundtrack

CD, Sheet music, Poster

Do you like Karekano Theme? Share with your friends now
Tabs
                             ::Tenshi no Yubikiri::
                            (KareKano Opening Theme)

                          Lyrics from  AnimeLyrics.com

Notes:------------------------------------------------------------------------>>
[*]The timing in the solo is beyond what I can work out.  If you listen to the
track, you ought to be able to pick up the timing easily enough.  However,
writing it out properly is another matter entirely.
[*]The outro is basically an instrumental version of the chorus after the key
change.  I've included the chords separately anyway.

Intro:-------------------------------------------------------------------------|>
E|-----------------|-----------------------------------------------------------|
B|-----------------|-----------------------------------------------------------|
G|---------------0-|-1:--------------------------------------------------------|
D|-----------1-3---|-----------------------------------------------------------|
A|-----1-2-3-------|-----------------------------------------------------------|
E|-2-4-------------|-----------------------------------------------------------|
   1 + 2 + 3 + 4 +   1 + 2 + 3 + 4 +

Chorus:----------------------------------------------------------------------->>
G#
YOU MAY DREAM
Fm    C#m
oikakete
    F#
sunao na kono
B
kimochi
   G#m    C#
tsutaerareta nara
D#
DREAMS COME TRUE
G#
YOU MAY DREAM
         C#m
masshiro na
    F#         B
koi wa tsubasa ni naru
G#m         C#
tenshi no yubikiri
  D#      C#m
kanau you ni

Bridge:----------------------------------------------------------------------->>
C#m     B
C#m     B

Verse 1:---------------------------------------------------------------------->>
C#m       B
me no mae wo
    G#m      D#m
sugiru yokogao
    F#       C#         F#sus4   F#
tokimeki ga odori-hajimeru
C#m      B
hanasu koe
     G#m      D#m
mimi wo katamuke
     F#       C#          D#sus4  D#
mata hitotsu anata wo shitta

Pre-Chorus:------------------------------------------------------------------->>
       Cm        C#       D#
hon no sukoshi yuuki dashite
     Cm        C#       D#
sono hitomi wo mitsumetai

Chorus:----------------------------------------------------------------------->>
G#
YOU MAY DREAM
Fm    C#m
oikakete
    F#
sunao na kono
B
kimochi
   G#m    C#
tsutaerareta nara
D#
DREAMS COME TRUE
G#
YOU MAY DREAM
         C#m
masshiro na
    F#         B
koi wa tsubasa ni naru
G#m         C#
tenshi no yubikiri
  D#
kanau you ni

Bridge:----------------------------------------------------------------------->>
C#m     B
C#m     B

Verse 2:---------------------------------------------------------------------->>
C#m     B
omokage ga
    G#m       D#m
kirameku tabi ni
     F#     C#           F#sus4   F#
mune ga itande me wo tojiru
C#m       B
setsunasa ga
    G#m      D#m
namida ni natte
    F#         C#       D#sus4   D#
jibun katte ni koborete'ku

Pre-Chorus:------------------------------------------------------------------->>
    Cm         C#         D#
kizutsuku koto wo osorezu ni
    Cm        C#        D#
kagami ni koyubi sashidasu

Chorus:----------------------------------------------------------------------->>
G#
YOU MAY DREAM
Fm       C#m
dakishimete
    F#
ima sugu kono
B
omoi
  G#m       C#
kotoba ni kaetai
D#
I LOVE YOU
G#
YOU MAY DREAM
Fm       C#m
masshiro na
    F#         B
koi wa tsubasa ni naru
G#m         C#
tenshi no yubikiri
  D#
kanau you ni

Solo:--------------------------------------------------------------------------|>
E|-----11:---------|---------8-------|-----------------|-----------------------|
B|-----------------|---------------9-|-9:--------------|-12--11--9-------------|
G|-----------------|-----------------|-----------------|-------------11-11-----|
D|-----------------|-----------------|-----------------|-----------------------|
A|-----------------|-----------------|-----------------|-----------------------|
E|-----------------|-----------------|-----------------|-----------------------|

E|----------14-14-11-----------------16:---16-15-13-11-11-|
B|--14-12------------12-14--14-13-14----------------------|
G|--------------------------------------------------------|
D|--------------------------------------------------------|
A|--------------------------------------------------------|
E|--------------------------------------------------------|

Bridge 2:----------------------------------------------------------------------|>
E|-----------------|-----------------------------------------------------------|
B|-----------------|-----------------------------------------------------------|
G|---------------1-|-2:--------------------------------------------------------|
D|---------0-2-4---|-----------------------------------------------------------|
A|---0-2-3---------|-----------------------------------------------------------|
E|-3---------------|-----------------------------------------------------------|
   1 + 2 + 3 + 4 +   1 + 2 + 3 + 4 +

Chorus 2:--------------------------------------------------------------------->>
A
YOU MAY DREAM
F#m    Dm
oikakete
    G
sunao na kono
C
kimochi
   Am     D
tsutaerareta nara
E
DREAMS COME TRUE
A
YOU MAY DREAM
F#m      Dm
masshiro na
    G          C
koi wa tsubasa ni naru
Am          D
tenshi no yubikiri
  E       A
kanau you ni

Outro:------------------------------------------------------------------------>>
A   F#m   Dm
G   C   Am   D   E

------------------------------------------------------------------------------||





Comments


Popular Misc Soundtrack tabs & chords
A Very Potter Musical - Gotta Get Back To Hogwarts Chords
Django Unchained - Freedom Chords
Hairspray - Without Love Chords
Axel F 1 Tabs
Braveheart Theme 2 Tabs
Harry Potter Theme 6 Tabs
Lord Of The Rings Theme Tabs
Police Academy Tabs
1920-evil Returns - Majboor Tu Bhi Kahin Ukulele
A Chorus Line - One Ukulele


Song lyrics



↑ Back to top | Tablatures and chords are parodies/interpretations of the original songs. You may use it for private study, scholarship, research or language learning purposes only
© 2014 AZChords.com Contact us | Privacy policy | DMCA | Add/correct tabs | Request tabs | Top 50 tabs