» » »

Jannat - Zara Si Dil Mein De Jagah Tu Tabs (ver.2)

Artists:  A B C D E F G H I J K L M N O P Q R S T U V W X Y Z # 

Jannat - Zara Si Dil Mein De Jagah Tu Tabs (ver.2)

Misc Soundtrack
Rating:
0/5 (0 votes)

Hard to play? Try these video lessons and learn fast.
                Jannat - Zara Si Dil Mein De Jagah Tu (Power Ballad)


Standard Tuning (EADGBe)

Chords Used: Bm  -  024432
             G   -  005430 (During the Arpeggio in the intro part only)
             A   -  002220
             D   -  000232
             D5  -  x577xx
             G5  -  355xxx
             A5  -  577xxx
             B5  -  x244xx  



   Zara Si Dil Mein De Jagah Tu.............


     E  E  E  E  E  E  E  E     E  E  E  E  E  E  E  E   
E||--------------------------|--------------------------|
B||--------3-----2-----3-----|--------3-----2-----3-----|
G||--------------------------|-----4--------------------|
D||-----4-----4-----4-----4--|--5--------5-----5-----5--|
A||--2-----------------------|--------------------------|
E||--------------------------|--------------------------|

   Zara Sa Apna Le Bana........................


  E  E  E  E  E  E  E  E     E  E  E  E  E  E  E  E   
E||--------------------------|--------------------------|
B||--------3-----2-----3-----|--------3-----2-----3-----|
G||--------------------------|--------------------------|
D||-----2-----2-----2-----2--|-----4-----4-----4-----4--|
A||--0-----------------------|--2-----------------------|
E||--------------------------|--------------------------|

   Zara Sa Khaabon Mein Saaja Tu.........


  E  E  E  E  E  E  E  E     E  E  E  E  E  E  E  E   
E||--------------------------|--------------------------|
B||--------3-----2-----3-----|--------3-----2-----3-----|
G||--------------------------|-----4--------------------|
D||-----4-----4-----4-----4--|--5--------5-----5-----5--|
A||--2-----------------------|--------------------------|
E||--------------------------|--------------------------|

    Zara Sa Yaadon Mein Basa.............


  E  E  E  E  E  E  E  E     E  E  E  E  E  E  E  E   
E||--------------------------|--------------------------|
B||--------3-----2-----3-----|--------3-----2-----3-----|
G||--------------------------|--------------------------|
D||-----2-----2-----2-----2--|-----4-----4-----4-----4--|
A||--0-----------------------|--2-----------------------|
E||--------------------------|--------------------------|

   Mein Chahoon Toojhko Meri Jaan Bepanhaa.........


  E  E  E  E  E  E  E  E     E  E  E  E  E  E  E  E   
E||--------------------------|--------------------------|
B||--------3-----------3-----|--------3-----2-----3-----|
G||-----4-----4-----2-----2--|--------------------------|
D||--5-----------2-----------|-----4-----4-----4-----4--|
A||--------------------------|--2-----------------------|
E||--------------------------|--------------------------|

   Fida Hoo Tujhpe Meri Jaan Bepanahaa.................
  E  E  E  E  E  E  E  E     E  E  E  E  E  E  E  E    
E||--------------------------|--------------------------||
B||--------3-----------3-----|--------3-----2-----3-----||
G||-----4-----4-----2-----2--|--------------------------||
D||--5-----------2-----------|-----4-----4-----4-----4--||
A||--------------------------|--2-----------------------||
E||--------------------------|--------------------------||


Chorus: D5   A5   B5   G5(power Chords)
             or
        D    A   Bmin  G (try in an unplugged version)


Rest Of The Song Carries The Same Way.............



Duration Legend
---------------
W - whole
H - half
Q - quarter
E - 8th
S - 16th
T - 32nd
X - 64th
. - note dotted
|-n-|  - n-tuplets
            
Hard to play? Try these video lessons and learn fast. | Correct




comments powered by Disqus
↑ Back to top | Tablatures and chords are parodies/interpretations of the original songs. You may use it for private study, scholarship, research or language learning purposes only