» » »

Misc Soundtrack, Jannat - Zara Si Dil Mein De Jagah Tu Tabs (ver.1)

Artists:  A B C D E F G H I J K L M N O P Q R S T U V W X Y Z # 

Jannat - Zara Si Dil Mein De Jagah Tu Tabs (ver.1)

Misc Soundtrack Tabs
Rating:
0/5 (0 votes)
Hard to play? Try these video lessons and learn fast.
                PTL
              Zara si dil mein de jagah tu
               From the hindi movie Jannat
By Sanjeev George and Thomas George
Tuning: standard

Intro

Guitar 1
e|----------------------------------------------------------------------------|
B|------3---2---3---------3---2---3--------3---2---3--------3---2---3---------|
G|--4------------------------------------0--------------4---------------------|
D|--------4---4---4-----0---0---0---0--------0---0---0----4---4---4---4-------|
A|----2-----------------------------------------------------------------------|
E|--------------------0----------------3--------------------------------------|


Guitar 2 (w/effect)
e|--14v-\--------------------------------|
B|------------17v---15v---14v---\--------|
G|---------------------------------------|
D|---------------------------------------|
A|---------------------------------------|
E|---------------------------------------|


Verse

Guitar 1
e|----------------------------------------------------------------------------|
B|------3---2---3---------3---2---3--------3---2---3--------3---2---3---------|
G|--4------------------------------------0--------------4---------------------|
D|--------4---4---4-----0---0---0---0--------0---0---0----4---4---4---4-------|
A|----2-----------------------------------------------------------------------|
E|--------------------0----------------3--------------------------------------|
zara si dil mein de jagaah tu…      zara sa apna le banaa…

e|----------------------------------------------------------------------------|
B|------3---2---3---------3---2---3--------3---2---3--------3---2---3---------|
G|--4------------------------------------0--------------4---------------------|
D|--------4---4---4-----0---0---0---0--------0---0---0----4---4---4---4-------|
A|----2-----------------------------------------------------------------------|
E|--------------------0----------------3--------------------------------------|
zara sa khaabon mein sajaa tu…    zara sa yaadon mein basaa…


e|----------------0-----------------------------------------|
B|------3-----------2------3---2---3------------------------|
G|--------0-----0------4------------------------------------|
D|----2------------------4---4---4---4----------------------|
A|----------------------------------------------------------|
E|--0--------3----------------------------------------------|
  main chaahun tujhko meri jaan bepanaah


e|----------------0-----------------------------------------|
B|------3-----------2------3---2---3------------------------|
G|--------0-----0------4------------------------------------|
D|----2------------------4---4---4---4----------------------|
A|----------------------------------------------------------|
E|--0--------3----------------------------------------------|

fidaa hoon tujhpe meri jaan bepanaah


Chorus (Both guitars)
Woo.oooooo….

D5  A5  B5  G5 x 4

e|----------------------------------------|
B|----------------------------------------|
G|----------------------------------------|x 4
D|--77777---------------------------------|
A|--55555--x-777777-x-999999-x-555555-----|
E|---------x-555555-x-777777-x-333333-----|

Then
Guitar 2(W/effect)
e|---14v\----------------------------------|
B|------------15b17-r15v---14v-12----------|
G|-----------------------------------------|
D|-----------------------------------------|
A|-----------------------------------------|
E|-----------------------------------------|
Verse again
Chorus repeats
Solo
Guitar 1  G5   G5 A5 G5 E5 X 2
          D5   C5  G5  F5  E5        

e|----------------------------------------------|
B|----------------------------------------------|
G|----------------------------------------------|
D|----------------------------------------------|x 2
A|--555555555555555-5-7-5-2222222222222222------|
E|--333333333333333-3-5-3-0000000000000000------|

e|--------------------------------------------------|
B|--------------------------------------------------|
G|--------------------------------------------------|
D|--77777777-55555555-------------------------------|
A|--55555555-33333333-55555555-33333333-2~----------|
E|--------------------33333333-11111111-0~----------|

Guitar 2 plays solo over above rhythm


Bridge:
Guitar 1 

 Bm               A  
Ab meri manzil ke aa mere darmiyaan

 Em                    A          
Bas zara sa bacha hai faasla

 Bm               A  
Aise mein daaman chuda ke tu na ja

 G                      A
Bin tere har khushi hai bewajah


Then 
Both guitars
             G5         A5          B5
main chaahun tujhko meri jaan bepanaah
            G5        A5           B5
fidaa hoon tujhpe meri jaan bepanaah

Chorus repeats

Ends on verse zara si dil mein……


Please rate
            

comments powered by Disqus
↑ Back to top | Misc Soundtrack Tabs for Jannat - Zara Si Dil Mein De Jagah Tu. Lyrics for acoustic guitar and electric guitar. Tablatures and chords are parodies/interpretations of the original songs. You may use it for private study, scholarship, research or language learning purposes only