>
 >
Jannat - Jannat Jahan

Jannat - Jannat Jahan Guitar Tabs

Misc Soundtrack - Jannat - Jannat Jahan chords, tabs, tablatures, lyrics

Guitar lessons | Add/correct | Request | Top 50 tabs Artists:  A B C D E F G H I J K L M N O P Q R S T U V W X Y Z 0-9

Jannat - Jannat Jahan Guitar Tabs – Misc Soundtrack

CD, Sheet music, Poster

Do you like Jannat - Jannat Jahan? Share with your friends now
Tabs
PTL


                                   “Jannat jahaan”
                            From the Hindi movie “Jannat” 




Tuning: standard

Intro

e|----------------------------------|
B|----------------------------------|
G|--9-------------------------------|
D|--9------7/5------9--7--5---7~----|
A|--7------5/3------7--5--3---5~----|
E|----------------------------------|

e|--------------------------------|      e|------------------|
B|--------------------------------|      B|------------------|
G|--------------------------------|      G|------------------|
D|-----2--------7-------5---7/9---|x3    D|----2--------7~---|
A|-----2--------5--5-5--3-3—5/7---|      A|----2--------5~---|
E|---0-0--0-0-0-------------------|      E|--0-0--0-0-0------|
          . . .    . .    .                       . . .

Verses (hey,suno naa….)
e|---------------------------------------------------------------------------------|
B|---------------------------------------------------------------------------------|
G|---------------------------------------------------------------------------------|x2
D|--9------9------9----5------5------5-----------------------7------7------7-------|
A|--7--7-7-7--7-7-7-7--3--3-3-3--3-3-3-3--7------7------7----5--5-5-5--5-5-5-5-----|
E|----------------------------------------5--5-5-5--5-5-5-5------------------------|
       . .    . .   .     . .    . .   .     . .    . .   .     . .    . .   .


e|-------------------------------------------------------------------|
B|-------------------------------------------------------------------|
G|-----------------------------------------------------------4~------|
D|--5------5------5-----------------------5------5------5----4~------|
A|--3--3-3-3--3-3-3-3--5------5------5----3--3-3-3--3-3-3-3--2~------|
E|---------------------3--3-3-3--3-3-3-3-----------------------------|
       . .    . .   .     . .    . .   .     . .    . .   .

Chorus (Jannat Jahaan…..)
e|--------------------------------|      e|------------------|
B|--------------------------------|      B|------------------|
G|--------------------------------|      G|------------------|
D|-----2--------7-------5---7/9---|x3    D|----2--------7~---|
A|-----2--------5--5-5--3-3—5/7---|      A|----2--------5~---|
E|---0-0--0-0-0-------------------|      E|--0-0--0-0-0------|
          . . .    . .    .                       . . .

Solo 1
e|-----------------------------------------------------------|
B|---------12-10v---8-8—10/12---------12-10v-----15b17v------|
G|--9—9v-----------------------9-9v--------------------------|
D|-----------------------------------------------------------|
A|-----------------------------------------------------------|
E|-----------------------------------------------------------|

Backing rhythm for solo 1
e|--------------------------------||------------------|
B|--------------------------------||------------------|
G|--------------------------------||------------------|
D|-----2--------7-------5---5/7---||----2--------7~---|
A|-----2--------5--5-5--3-3—3/5---||----2--------5~---|
E|---0-0--0-0-0-------------------||--0-0--0-0-0------|
          . . .    . .    .                . . .

Guitar fills in verse 2
e|-----|----------------------------------|-7h8p7------------|-----------------------|
B|-----|--15b17---15b17r15p12----15-------|--------8---------|-12h15p12h15p12-Trill--|
G|-12+-|----------------------14----12v---|----------7-7/9v--|-----------------------|
D|-----|----------------------------------|------------------|-----------------------|
A|-----|----------------------------------|------------------|-----------------------|
E|-----|----------------------------------|------------------|-----------------------|

Chorus 2nd time
Chorus
e|--------------------------------|      e|--------------------------|
B|--------------------------------|      B|--------------------------|
G|--------------------------------|      G|--------------------------|
D|-----2--------7-------5---7/9---|x3    D|----2--------7------5~----|
A|-----2--------5--5-5--3-3—5/7---|      A|----2--------5------3~----|
E|---0-0--0-0-0-------------------|      E|--0-0--0-0-0----0-0-------|
          . . .    . .    .                       . . .    . .

Solo 
e|-----------------------------------------------------------|
B|-----------------------------------------------------------|
G|--12v—12p9\7-9b11r9b11r9---9p7-----------------------------|
D|-------------------------------9-7v---7p5----7-5-----------|
A|------------------------------------------7------7v--------|
E|-----------------------------------------------------------|

e|---------------------------------------10----------------10-10-10-----------------------|
B|-------------8--------------8-10b12v------12r10---10b12--12-12-12-12r10p8---10p8--------|
G|-----------7---7-7/9v---7/9-----------------------------------------------9------9-9v---|
D|-----5-5/7------------------------------------------------------------------------------|
A|--/7------------------------------------------------------------------------------------|
E|----------------------------------------------------------------------------------------|

e|---------------12------------------12------------------12------------------12------|
B|------------12----15p12------(12)----15p12-------(12)----15p12-------(12)----15p12-|
G|-9/14-14b16-------------14b16---------------14b16---------------14b16--------------|
D|-----------------------------------------------------------------------------------|
A|-----------------------------------------------------------------------------------|
E|-----------------------------------------------------------------------------------|

e|-----------12-14b15—14b15---14b15r14p12-------12-12-------12---------------|
B|------(12)------------------------------15b17-------15b17----15p12----12---|
G|-14b16-------------------------------------------------------------14------|
D|---------------------------------------------------------------------------|
A|---------------------------------------------------------------------------|
E|---------------------------------------------------------------------------|

e|--------------------------------------------------------------------------------|
B|-15-x-15p12----------------------15---------------------------------------------|
G|------------14p12-14-12v---14p12-14-12v------14-12-12v--------------------------|
D|------------------------------------------14----12-------14p12----12/7v---------|
A|---------------------------------------------------------------14-------10-7----|
E|--------------------------------------------------------------------------------|

e|-------------------------12v—14b15--14—12h14p12----12----------------------|
B|------------------------------------------------15----15-------------------|
G|----7-xxxx-14p12---14/16---------------------------------12v---------------|
D|-/9---xxxx-14p12-----------------------------------------------------------|
A|---------------------------------------------------------------------------|
E|---------------------------------------------------------------------------|


Bridge guitar fills (paisa…..paisa…)
e|----------------|-------------------|-----------------------------------|
B|--15------------|-15-----------15~--|-----------------------------------|
G|--14p12-14-12v--|-14b16---12v--14~--|-14v---13v---12v---11v-------9v----|
D|----------------|-------------------|-----------------------------------|
A|----------------|-------------------|-----------------------------------|
E|----------------|-------------------|-----------------------------------|

e|---14b15---14-12-------------|-----------------------------|
B|-----------------15-15v------|-12h15p12h15p12-Trill--/------|
G|-----------------------------|-----------------------------|
D|-----------------------------|-----------------------------|
A|-----------------------------|-----------------------------|
E|-----------------------------|-----------------------------|

Outro solo
e|---17b19---17b19r17p15-15-17v--------17-15--------------------------------|
B|----------------------------------17-------17v---15-17v---15—17v----------|
G|--------------------------------------------------------------------------|
D|--------------------------------------------------------------------------|
A|--------------------------------------------------------------------------|
E|--------------------------------------------------------------------------|

End
e|-------------------------------------------------------------------------------|
B|-------------------------------------------------------------------------------|
G|-------------------------------------------------------------------------------|
D|--2------2------2----5------5------5------------------------7------7------7----|
A|--2------2------2----3--3-3-3--3-3-3-3---7------7------7----5--5-5-5--5-5-5----|
E|--0--0-0-0--0-0-0-0----------------------5--5-5-5--5-5-5-5---------------------|
       . .    . .   .     . .    . .   .      . .    . .   .     . .    . .   



-Intro
-Verse1
-Chorus
-Verse2 with the guitar fills
-Chorus
-Solo
-Bridge with the guitar fills
-Chorus till end with solo 1 twice then the outro solo
-End


| /  slide up
| \ slide down
| h  hammer-on
| p  pull-off
| v  vibrato
| +  harmonic
| ~  let ring
| x  Mute note
| .  palm mute
| () ghost note

Please rate it. Thanks 

===============================================================================





Comments


Popular Misc Soundtrack tabs & chords
Jurassic Park Theme 2 Bass Tabs
A Mighty Wind - A Mighty Wind Chords
Aashiqui 2 - Tum Hi Ho Chords
Big Rock Candy Mountain Theme Chords
Buffy The Vampire Slayer - Rest In Peace Chords
Do You Wanna Build A Snowman Chords
Godfather Theme 2 Tabs
Green Rose - Jericho Rosales - Bumuhos Man Ang Ulan Tabs
In Bruges Theme Tabs
Kill Bill Tabs


Song lyrics



↑ Back to top | Tablatures and chords are parodies/interpretations of the original songs. You may use it for private study, scholarship, research or language learning purposes only
© 2014 AZChords.com Contact us | Privacy policy | DMCA | Add/correct tabs | Request tabs | Top 50 tabs