>
 >
Jannat - Door Na Ja

Jannat - Door Na Ja Guitar Tabs

Misc Soundtrack - Jannat - Door Na Ja chords, tabs, tablatures, lyrics

Guitar lessons | Add/correct | Request | Top 50 tabs Artists:  A B C D E F G H I J K L M N O P Q R S T U V W X Y Z 0-9

Jannat - Door Na Ja Guitar Tabs – Misc Soundtrack

CD, Sheet music, Poster

Do you like Jannat - Door Na Ja? Share with your friends now
Tabs
PTL

                          Door na ja
                 From the hindi movie “Jannat”


By Sanjeev George and Thomas George

Tuning:std

No. of guitars used:3
Guitar 1: Acoustic
Guitar 2: Electric clean and distorted
Guitar 3: Electric lead 

Difficult to say if they’ve used 2 guitars for leads; anyways, we’ve tabbed for one.


Chords used
e|---5--------3--------0--------3--------1-------0-------1--------------------|
B|---6--------3--------1--------3--------3-------1-------3--------------------|
G|---7--------2--------0--------0--------3-------2-------2--------------------|
D|---7--------2--------2--------0--------3-------2-------0--------------------|
A|---5--------3--------3--------2--------1-------0----------------------------|
E|---5--------3-----------------3--------1------------------------------------|
   Bar Dm    half C    C        G        Bb      Am     Dm


INTRO

  Guitar 1
e|--------------5--------------------------------------8-------------------0--------|
B|---------6-------6---5----------5-----------------------8---------------3---3-----|
G|------------7-----------------5---5-----5-----------9-----9-----------0-------0---|
D|------7------------7--------5---------5----------10---------10------0-----------0-|
A|----5--------------------3---------3---------10------------------2----------------|
E|-------------------------------------------8--------------------------------------|
         Dm                    C               Bar C                 G

Guitar 2 gentle strumming bar Dm, half C, C and G x 2 (“Tera chehra…….”)
                              Bb, C, Bb, Am, G, Dm (“Door na ja,door na ja…..“) 

ROCK PART!!!

Guitar 2 distorted
e|-------------------------------------------------------------------------|
B|-------------------------------------------------------------------------|
G|-------------------------------------------------------------------------|
D|--//--7----7/5---3---------------5--7~-----7/5---3-----------------5-----|
A|--//--5----5/3---1-1-1-1-1-1-1-1-3--5~-----5/3---1-1-1-1-1-1-1-1-1-3-----|
E|--//---------------------------------------------------------------------|

e|------------------------------------------------------------|
B|------------------------------------------------------------|
G|------------------------------------------------------------|
D|----------------------------------------------------7~------|
A|--5-5------------------5---7--8-----8---------8-----5~------|
E|--3-3-3-3-3-3-3-3-3-3--3---5--6-6-6-6-6-6-6-6-6-------------|

e|-------------------------------|
B|-------------------------------|
G|--7/\--------------------------|
D|--7/\---7---7-12---7---7-14----|
A|--------5---5-10---5---5-12----|
E|----------8---------8----------|

e|-----------------------------------------------------------------------------------|
B|-----------------------------------------------------------------------------------|
G|-----------------------------------------------------------------------------------|
D|---7--5~------5--------5---3-------------3--7~--7---7-12---7---7-14---12-----------|
A|-x-5--3~--3-3-3--3-3-3-3---1-1-1-1-1-1-1-1--5~--5---5-10---5---5-12---10-10---12~--|
E|--------------------------------------------------8----------8-----------8----10~--|

Guitar 3 lead
e|-----------------------------------------------------------------------------|
B|------------------------------------------------10----10h11------------------|
G|-----------/10+v--------------10-b12v--------10----12-------12b14-12v--------|
D|--/12v---------------/12v----------------/12---------------------------------|
A|-----------------------------------------------------------------------------|
E|-----------------------------------------------------------------------------|

e|-------------------12h13-13+v--/\------------------------------------|
B|------------------------------------------10----10h11----------------|
G|--14p12--------------------------------10----12-------12b14-12v------|
D|--------14b15v---------------------/12-------------------------------|
A|---------------------------------------------------------------------|
E|---------------------------------------------------------------------|

e|---------------------12h13-13+v-\----------|
B|-------------------------------------------|
G|-10b12r10b12r-10v--------------------------|
D|-------------------------------------------|
A|-------------------------------------------|
E|-------------------------------------------|


VERSES
Guitar 1 arpeggios for verses
e|-----------------------------------------|             
B|--------5--------5------5--------5-------|          
G|---7------7--------7------7--------------| keep playin 
D|-----7------7--------8------8------------| 
A|--------------5---------------5----------| 
E|-----------------------------------------|            

e|-------------------------|               e|----------------------|
B|-------------------------|               B|----5-------5---------|
G|----5-7---5-7------------|keep playin    G|--7-----7-------------|
D|--------7-----7----------|for awhile     D|------7---7-----------|
A|-------------------------|then switch to A|----------------------|
E|-------------------------|               E|----------------------|

Guitar 2 distorted for verses
e|------------------------------------------------------------|
B|------------------------------------------------------------|
G|-//---------------------------------------------------------|
D|-//--7~-----3~-----------------5----------5---3---5---------|
A|-//--5~-----1~-----3~-----5~---3----5-----3---1---3---5-----|
E|-------------------1~-----3~--------3-----------------3-----|

e|------------------------------------------------|
B|------------------------------------------------|
G|------------------------------------------------|
D|--3-3-3-3-3-3-3-3-3-3-3-3-3--3----5--5~----7~---|
A|--1-1-1-1-1-1-1-1-1-1-1-1-1--1-3--3--3~----5~---|
E|-------------------------------1----------------|
    
e|-----------------------------------------------------------------|
B|-----------------------------------------------------------------|
G|-----------------------------------------------------------------|
D|--7-7-7-7-7-7-7-7-7--5-5-5-5-5-5-5-5-5--3-3-3-3-3-3-3-3-3--7~----|
A|--5-5-5-5-5-5-5-5-5--3-3-3-3-3-3-3-3-3--1-1-1-1-1-1-1-1-1--5~----|
E|-----------------------------------------------------------------|
   (Door na ja ….door na ja……)

Guitar 3 lead for verse 1
e|---------------------------------------------------------------------------|
B|---------------------------------------------------------------------------|
G|-12b14—r12p10/9-9b10r9b10r9b10r9b10r9b10r9b10r9b10r9b10r--/\---------------|
D|---------------------------------------------------------------------------|
A|---------------------------------------------------------------------------|
E|---------------------------------------------------------------------------|

e|-----------15-15b17—17r15--------------------------------------------------|
B|--15-17-18----------------18—17b18r17b18r17p15-----------------------------|
G|-----------------------------------------------17b19—r17v------------------|
D|---------------------------------------------------------------------------|
A|---------------------------------------------------------------------------|
E|---------------------------------------------------------------------------|

e|---------------------------------------15--------15-17b18r17p15------------|
B|--15-17-17b18r17p15-----------------15--------15----------------18p17p15---|
G|--------------------15-----------17----------------------------------------|
D|-----------------------15v----17-------------------------------------------|
A|---------------------------------------------------------------------------|
E|---------------------------------------------------------------------------|

e|----------------------------------------------------------|
B|-----15---------15h17-15-15b17—r15------------------------|
G|--------17v------------------------17---------------------|
D|--17----------------------------------17v-----------------|
A|----------------------------------------------------------|
E|----------------------------------------------------------|

e|-----------13----------15----------13----------15----------13----------15--|
B|--------13----------13----------13----------13----------13----------13-----|
G|-----12----------12----------12----------12----------12----------12--------|
D|--15----------15----------15----------15----------15----------15-----------|
A|---------------------------------------------------------------------------|
E|---------------------------------------------------------------------------|

e|-----------13----------15---15\12v---|
B|--------13----------13---------------|
G|-----12----------12------------------|
D|--15----------15---------------------|
A|-------------------------------------|
E|-------------------------------------|

e|-12h13-13b14r13b14r13b14r--------------------15b17r—15b17-r15p12-----------|
B|--------------------------13v----15v-----------------------------15-13v----|
G|------------------------------14-------------------------------------------|
D|---------------------------------------------------------------------------|
A|---------------------------------------------------------------------------|
E|---------------------------------------------------------------------------|

e|-----15-18-18b20—r18--------------------------------------20v----------------------|
B|-/17------------------------15/17/18—18b20—-----20r18-17v--------------------------|
G|-----------------------------------------------------------------------------------|
D|-----------------------------------------------------------------------------------|
A|-----------------------------------------------------------------------------------|
E|-----------------------------------------------------------------------------------|

Then after verse ends with “door na ja….”

Guitar 2 distorted
e|-------------------------------------------------------------|
B|-------------------------------------------------------------|
G|-------------------------------------------------------------|
D|--7-7----7-7-----7-7-----7-7-----7-7-----7-7-----7-7-----7-7-|
A|--5-5----5-5-----5-5-----5-5-----5-5-----5-5-----5-5-----5-5-|
E|-------------------------------------------------------------|
 |___________________Palm Muted_______________________________|

e|---------------------------------------------------------------------------|
B|---------------------------------------------------------------------------|
G|---------------------------------------------------------------------------|
D|--5-3---------------------------------------3-3-3-3-3-3-3-3-3--------------|
A|--3-1---5-5-5-5-5-5-5-5-5--3-3-3-3-3-3-3-3--1-1-1-1-1-1-1-1-1--------------|
E|--------3-3-3-3-3-3-3-3-3--1-1-1-1-1-1-1-1---------------------------------|

e|--------------------------|
B|--------------------------|
G|--------------------------|
D|--5-5-5-5-5-5-5-5-5--7~---|
A|--3-3-3-3-3-3-3-3-3--5~---|
E|--------------------------|

Guitar 3
e|---------------------------------------------------------------------------|
B|---------------------------------------------------------------------------|
G|----14-12-14-14b15-r14---12-10-12v---10p9----------------------------------|
D|------------------------------------------12-12v-\-------------------------|
A|---------------------------------------------------------------------------|
E|---------------------------------------------------------------------------|

e|----------------------------------------12-12b13-r12-12-12-------12-12h13p12------|
B|-------------------------13-13h15v---/15-------------------15-15-------------15+v-|
G|-14-12-14-14b15-r14—14/15---------------------------------------------------------|
D|----------------------------------------------------------------------------------|
A|----------------------------------------------------------------------------------|
E|----------------------------------------------------------------------------------|

VERSE 2 
Same as verse 1 except for guitar 3 leads

Guitar 3 leads
e|-----------------------------------------------|
B|--------8h11p10p8------------------------------|
G|--10v-------------10v--------------------------|
D|----------------------10p8-8h10p8-7-7v---------|
A|-----------------------------------------------|
E|-----------------------------------------------|

e|-----------15-15b17—17r15--------------------------------------|
B|--15-17-18----------------18-17b18r17b18r17p15-----------------|
G|-----------------------------------------------17b19-17v-------|
D|---------------------------------------------------------------|
A|---------------------------------------------------------------|
E|---------------------------------------------------------------|

e|--10-12-12h13p12p10------------15v-----15-15-17h18p17p15-------------------------|
B|-------------------------13-13--------------------------------------15-13v-------|
G|--------------------12v----------------------------------17v-----12--------------|
D|---------------------------------------------------------------------------------|
A|---------------------------------------------------------------------------------|
E|---------------------------------------------------------------------------------|

e|----8---8---8---8---------------------------------------------|
B|--8---8---8---8---8-------------------------------------------|
G|--------------------10-10b12r10b12r10-9v----------------------|
D|--------------------------------------------------------------|
A|--------------------------------------------------------------|
E|--------------------------------------------------------------|

e|---------------------------------15/17vvvvv--------------------------------|
B|--18b20v---15-17-------------/15--------------------10-8/10—-8v------------|
G|-----------------17b19-17v----------------------/10------------------------|
D|---------------------------------------------------------------------------|
A|---------------------------------------------------------------------------|
E|---------------------------------------------------------------------------|

e|-----------8h10p8-----------13p12—12b13-12b13-12b3-12b3-12b3-12b3-12b3-12b3-11b13-|
B|-8-10h12p10------11p10h11v--------------------------------------------------------|
G|----------------------------------------------------------------------------------|
D|----------------------------------------------------------------------------------|
A|----------------------------------------------------------------------------------|
E|----------------------------------------------------------------------------------|

e|-------10-12-13---|
B|-11-13------------|  Door na ja
G|------------------|
D|------------------|
A|------------------|
E|------------------|

Song ends with the arps on guitar 1

| /  slide up
| \ slide down
| h  hammer-on
| p  pull-off
| ~ let note/notes ring
| v  vibrato
| +  Pinch harmonic
| x  Mute note
| // Pick scrape

PLEASE RATE THE TAB.THANKS 





Comments


Popular Misc Soundtrack tabs & chords
A Mighty Wind - When Youre Next To Me Chords
Breakfast At Tiffanys - Moon River Chords
Hairspray - It Takes Two Chords
Jab Tak Hai Jaan - Challa Chords
Jesus Christ Superstar Theme Chords
Across The Universe - I Wanna Hold Your Hand Tabs
Badmaash Company - Fakeera Tabs
Inspector Gadget Theme Tabs
King Arthur Theme Tabs
Lord Of The Rings Song Tabs


Song lyrics



↑ Back to top | Tablatures and chords are parodies/interpretations of the original songs. You may use it for private study, scholarship, research or language learning purposes only
© 2014 AZChords.com Contact us | Privacy policy | DMCA | Add/correct tabs | Request tabs | Top 50 tabs