» » »

Misc Soundtrack, James Bond Tabs (ver.14)

Artists:  A B C D E F G H I J K L M N O P Q R S T U V W X Y Z # 

James Bond Tabs (ver.14)

Misc Soundtrack Tabs
Rating:
0/5 (0 votes)
James Bond lessons Tabs too difficult? Try these video lessons and learn fast
                (Theme)
                                JAMES BOND THEME


Its in 2 bits , there both seperate but both james bond.
   
    Gtr I
||------------|------------||-||--------------------|--------------------|
||o-----------|-----------o||-||o-------------------|--------------------|
||------------|------------||-||--------------------|--------------------|
||------------|------------||-||--------------------|--------------------|
||o-2----3----|-4----3----o||-||o-------------------|--------------------|
||------------|------------||-||--0-2-2-2-(2)-0-0-0-|-0-3-3-3-(3)-2-2-2--|


|-------------------|-------------------|
|-------------------|-------------------|
|-------------------|-------------------|
|-------------------|-------------------|
|-------------------|-------------------|
|-0-2-2-2-(2)-0-0-0-|-0-3-3-3-(3)-2-2-2-|


|-------------------|-------------------|
|-------------------|-------------------|
|-------------------|-------------------|
|-------------------|-------------------|
|-------------------|-------------------|
|-0-2-2-2-(2)-0-0-0-|-0-3-3-3-(3)-2-1-0-|


|----------------|-----------||-||------------|------------||
|----------------|----------o||-||o-----------|-----------o||
|----------------|-----------||-||------------|------------||
|-1-0-(0)--------|-----------||-||------------|------------||
|------------2-0-|-2--------o||-||o-2----3----|-4----3----o||
|----------------|-----------||-||------------|------------||


||------------------|-----------------|-----------------|--------|
||o-----------------|-----------------|-----------------|--------|
||----------4-3-----|-----------------|-----------------|--------|
||--2-5-(5)-------5-|-4-5-(5)--(5)----|-5--4--(4)---2---|--------|
||o-----------------|-----------------|-----------2---4-|-(4)----|
||------------------|-----------------|-----------------|--------|


|-----------------|-----------------|-----------------|---------||
|-----------------|-----------------|-----------------|--------o||
|---------4-3-----|-----------------|-----------------|---------||
|-2-5-(5)-------5-|-4-5-(5)--(5)----|-5--4--(4)---1-2-|-(2)-----||
|-----------------|-----------------|-----------2-----|--------o||
|-----------------|-----------------|-----------------|---------||


||-------------------|-------------------||
||o------------------|------------------o||
||-------------------|-------------------||
||--2-2-(2)-2-4-2-4--|-5-5-(5)-5-4-2-4---||
||o------------------|------------------o||
||-------------------|-------------------||


|-----------------------|----------|-----------|-----------|
|-----------------------|----------|-----------|-----------|
|-9-9---------9-9-(9)---|----------|-----------|-----------|
|-9-9---9-(9)-9-9-(9)---|-9--------|-----------|-----------|
|-7-7---9-(9)-7-7-(7)---|-9--------|-2----3----|-4----3----|
|-------7-(7)-----------|-7--------|-----------|-----------|


|-------------------|-------------------|
|-------------------|-------------------|
|-------------------|-------------------|
|-------------------|-------------------|
|-------------------|-------------------|
|-0-2-2-2-(2)-0-0-0-|-0-3-3-3-(3)-2-2-2-|


|-------------------|-------------------|
|-------------------|-------------------|
|-------------------|-------------------|
|-------------------|-------------------|
|-------------------|-------------------|
|-0-2-2-2-(2)-0-0-0-|-0-3-3-3-(3)-2-2-2-|


|-------------------|-------------------|----------------|------|
|-------------------|-------------------|----------------|------|
|-------------------|-------------------|----------------|------|
|-------------------|-------------------|-1-0-(0)--------|------|
|-------------------|-------------------|------------2-0-|-2----|
|-0-2-2-2-(2)-0-0-0-|-0-3-3-3-(3)-2-1-0-|----------------|------|


|---------------|--------------|--------------|-2----*|
|---------------|--------------|---------4-3--|-2----*|
|---------------|------------3-|-2----2-------|-2----*|
|---------------|--4-3---------|----3---------|-1----*|
|------1-0----2-|-------3-5----|--------------|-2----*|
|-0-3-------3---|--------------|--------------|------*|



bit 2


                                





  Gtr III
|-----------------------|----------------------||------------|-----------||
|-12-12--12-(12)--12-12-|--12---12-12-12-12-12-||o-----------|----------o||
|-11--9-----------11--9-|-------11-11-11-11--9-||--4----5----|-6----5----||
|---------9--(9)--------|---9------------------||--5----5----|-5----5----||
|-----------------------|----------------------||o-7----7----|-7----7---o||
|-----------------------|----------------------||------------|-----------||


                         1.,2.
    $
    Gtr I
||----------------------|----------------------||
||o---------------------|---------------------o||
||----------------------|----------------------||
||----------------------|----------------------||
||o---------------------|---------------------o||
||--0-2-2-2-2-(2)-0-0-0-|-0-3-3-3-3-(3)-2-2-2--||


  3.
                                                 D.S.
|---------------------|-------------------|------------||
|---------------------|-------------------|------------||
|---------------------|-------------------|------------||
|---------------------|-1-0-(0)--(0)------|------------||
|---------------------|---------------2-0-|-2----------||
|-0-3-3-3-3-(3)-2-1-0-|-------------------|------------||


                                   1.
    $$
    Gtr II
||-------11-10-----|-6-7-(7)------|--------------------|-------------||
||o---8----------8-|--------------|-8h9p8p7--(7)---5---|------------o||
||--9--------------|--------------|--------------4---6-|-(6)---------||
||-----------------|--------------|--------------------|-------------||
||o----------------|--------------|--------------------|------------o||
||-----------------|--------------|--------------------|-------------||


  2.
                             D.S.S.
                                    G
|----------------------|------------|
|-8h9p8----------------|------------|
|-------11--(11)---8-9-|-(9)--------|
|----------------9-----|------------|
|----------------------|------------|
|----------------------|------------|


 tr III
||--12-12--12-14-12-14--|-15-15--15-14-12-14---||
||o---------------------|---------------------o||
||---9--9---9-11--9-11--|-12-12--12-11--9-11---||
||----------------------|----------------------||
||o---------------------|---------------------o||
||----------------------|----------------------||


                         6/4                        4/4
                                                   Gtr I
|-14-12-----------14-12-|-------14-14-14-14-12-----|--------*|
|--------12-(12)--------|--12----------------------|-^-7----*|
|-----------------------|--------------------------|-^-8----*|
|-----------------------|--------------------------|-^-9----*|
|-----------------------|--------------------------|-^10----*|
|-----------------------|--------------------------|-^-0----*|
            
Submit corrections

comments powered by Disqus
↑ Back to top | Misc Soundtrack Tabs for James Bond. Lyrics for acoustic guitar and electric guitar. Tablatures and chords are parodies/interpretations of the original songs. You may use it for private study, scholarship, research or language learning purposes only