» » »

Misc Soundtrack, James Bond Bass tabs (ver.2)

Artists:  A B C D E F G H I J K L M N O P Q R S T U V W X Y Z # 

James Bond Bass tabs (ver.2)

Misc Soundtrack Tabs
 Rating:
4/5 (4 votes)
James Bond lessons Tabs too difficult? Try these video lessons and learn fast
                (Theme)
I tabbed this in the bass form for my friend to use. This is exactly the same on a
six-string up until the last two notes. On a six-string change the 87 on G to 43 on
B. Sustain the chord at the end for about a measure. The timing is off...but just
listen to the song twice and you'll get it.

G|---------------|---------------|------------------|------------------|
D|2---3---4---3--|2---3---4---3--|------------------|------------------|
A|--0---0---0---0|--0---0---0---0|------------------|------------------|
E|---------------|---------------|0-222-0000-333-222|0-222-0000-333-210|

G|--------|--87--------------|----87-------------|--------|--------|
D|10------|-5---589--5754--2-|---5---589--5754-12|-22-2424|-55-5424|
A|---202--|7--------------2-4|--7-------------2--|--------|--------|
E|--------|------------------|-------------------|--------|--------|

G|--------|--------|-------32-287|0|
D|-22-2424|-55-5424|---43-0--3---|4|
A|--------|--------|--2--3-------|2|
E|--------|--------|-3-----------|0|
            
Submit corrections

comments powered by Disqus
↑ Back to top | Misc Soundtrack Bass for James Bond. Lyrics for acoustic guitar and electric guitar. Tablatures and chords are parodies/interpretations of the original songs. You may use it for private study, scholarship, research or language learning purposes only