» » »

James Bond Tabs (ver.6)

Artists:  A B C D E F G H I J K L M N O P Q R S T U V W X Y Z # 

James Bond Tabs (ver.6)

Misc Soundtrack
Rating:
0/5 (0 votes)

Hard to play? Try these video lessons and learn fast.
                (Theme)
This is just an interpretation, but it will pass off when you are trying to impress your friends.

e---------------------------------------------------------
b-0--0-0--0-0-0-1--1-1--1-1-1-2--2-2--2-2-2-1--1-1--1-1-1-
g---------------------------------------------------------
d---------------------------------------------------------
a---------------------------------------------------------
e---------------------------------------------------------

e--0--0-0-0--0-0-0--0-0-0--0-0-0--0-0-0--0-0-0--0-0-0----
b-0-0--0-0-1--1-1-2--2-2-1--1-1-0--0-0-1--1-1-2--2-2-1---
g--------------------------------------------------------
d--------------------------------------------------------
a--------------------------------------------------------
e--------------------------------------------------------

e-0-0-0-
b--1-1-0
g-------
d-------
a-------
e-------

After You have finished the intro part, you can move on to the chord part which has the same rythm and stuff.

Emin           C             Cmod

e-0            e-0           e-0
b-0            b-1           b-4
g-0            g-0           g-0
d-2            d-2           d-2
a-2            a-3           a-3
e-0            e-0           e-0

The chord progression goes like this:
Emin ///// C///// Cmod///// C///// E/////  }x3

Now is the outro.

e----------------------------------------------------------
b----------------------------------------------------------
g----------------------------------------------------------
d----------------------------------------------------------
a----------------------------------------------------------
e-0--2-2-2-2--0-0-0-0--3-3-3-3--2-2-2-2-0--2-2-2-2--0-0-0-0

e---------------------------
b---------------------------
g---------------------------
d---------------------------
a---------------------------
e-3-3-3-3--3-2-0-10-9--7-5-7
            
Hard to play? Try these video lessons and learn fast. | Correct




comments powered by Disqus
↑ Back to top | Tablatures and chords are parodies/interpretations of the original songs. You may use it for private study, scholarship, research or language learning purposes only