» » »

Misc Soundtrack, James Bond Tabs (ver.1)

Artists:  A B C D E F G H I J K L M N O P Q R S T U V W X Y Z # 

James Bond Tabs (ver.1)

Misc Soundtrack Tabs
 Rating:
4/5 (4 votes)
James Bond lessons Tabs too difficult? Try these video lessons and learn fast
1
                (Full)
PROPS GO TO: blink182

ok the other one...well kinda sucks so heres my one that i figured out ages ago


Intro - Clean
|---------------------------------------------------
|---------------------------------------------------
|---------------------------------------------------
|---------------------------------------------------
|-----3---4---4-5---5-4-----------------------------
|---0---0---0-----0---------------------------------

Main - Clean
|---------------------------------------------------------------
|---------------------------------------------------------------
|---------------------------------------------------------------
|---------------------------------------------------------------
|--0-2-2-2-2--0-0-0-0-3-3-3-3-2-2-2-0-2-2-2-2--0-0-0-0-3-3-3-3--
|---------------------------------------------------------------

|----------------------------------------------------------------------
|----------------------------------------------------------------------
|----------------------------------------------------------------------
|----------------------------------------------------------------------
|--0-2-2-2-2--0-0-0-0-3-3-3-3-2-2-2-0-2-2-2-2--0-0-0-0-3-3-3-3-0-0-0---
|----------------------------------------------------------------------

Main 2 - Clean
|---------------------------------------------------------------
|---------------------------------------------------------------
|---------------------------------------------------------------
|--1-0-(let ring)-----------------------------------------------
|-----------------2-1-2-(let ring)--2-1-0-----------------------
|-----------------------------------------1-2-------------------

Interlude - Distorted
|---------------------------------------------------------------
|---------------------------------------------------------------
|---------------------------------------------------------------
|--0-2-6-5-0-2---1-0--------0-2-6-5-0-2---1-0------------------- (x2)
|--------------------0-3-0--------------------0-3-4-------------
|---------------------------------------------------------------

Riff - Distorted
|---------------------------------------------------------------
|---------------------------------------------------------------
|---------------------------------------------------------------
|--55-55-7-5-7--99-99-8-9-8-------------------------------------
|--55-55-7-5-7--99-99-8-9-8----------(x2)-----------------------
|--33-33-5-3-5--77-77-6-7-6-------------------------------------

Riff 2 - Distorted
|---------------------------------------------------------------
|---------------------------------------------------------------
|----99-2-99-2-99-999-------------------------------------------
|----99-2-99-2-99-999-------------------------------------------
|----77-0-77-0-77-777-------------------------------------------
|---------------------------------------------------------------

Main - Clean
|---------------------------------------------------------------
|---------------------------------------------------------------
|---------------------------------------------------------------
|---------------------------------------------------------------
|--0-2-2-2-2--0-0-0-0-3-3-3-3-2-2-2-0-2-2-2-2--0-0-0-0-3-3-3-3--
|---------------------------------------------------------------

Main 2 - Clean
|-----------------------------------------
|-----------------------------------------
|-----------------------------------------
|--1-0-(let ring)-------------------------
|-----------------2-1-2-(let ring)--------
|-----------------------------------------


Outro - Distorted
|------------------------------------------------
|------------------------------------------------
|--------------------------------------3---------
|------------------0-2-5-3-------------1---------
|----------0-2-5-3----------(pause)--------------
|--0-2-5-3---------------------------------------
            
Submit corrections

comments powered by Disqus
↑ Back to top | Misc Soundtrack Tabs for James Bond. Lyrics for acoustic guitar and electric guitar. 1 Tablatures and chords are parodies/interpretations of the original songs. You may use it for private study, scholarship, research or language learning purposes only