» » »

Misc Soundtrack, James Bond - From Russia With Love Tabs (ver.1)

Artists:  A B C D E F G H I J K L M N O P Q R S T U V W X Y Z # 

James Bond - From Russia With Love Tabs (ver.1)

Misc Soundtrack Tabs
Rating:
0/5 (0 votes)
James Bond - From Russia With Love lessons Tabs too difficult? Try these video lessons and learn fast
                By Lionel Bart (NOT John Barry)

Chords aligned with tab, not lyrics.


   Dm        Bb    Gm7  A7     Dm              Gm7   A7
E|-------------------------------------------------------------------||
B|---------------------------------------------------2---------------||
G|-----------3---2-1---2-----------------5---4-3---2-----------------||
D|----0-3--0-------------2--------0-3--0-----------------------------||
A|--0---------------------------0------------------------------------||
E|-------------------------------------------------------------------||


      D     D7    Gm      Gm7   Dm    A7     Dm
E|-------------------------------------------------------------------||
B|----3--------------------------------------------------------------||
G|--2---2---------5-5---3-0-----3---2--------------------------------||
D|---------4-0---------------2---------------------------------------||
A|-------------------------------------0--4---0--5-------------------||
E|-------------------------------------------------------------------||

I've traveled the world.  To you I must return.  From Russia with love.

        Gm             Dm              Gm    C          F       D7
E|-------------------------------------------------------------------||
B|-------------------------------------------------------------------||
G|------5-3--x--5-3---0-3-2-0-3-2----0----2-0---0-2------------------||
D|---------------------------------4----------3----------------------||
A|--4-5--------------------------------------------------------------||
E|-------------------------------------------------------------------||

I've seen places, faces and smiled for a moment, but oh, you haunted me so. 

        Gm             Dm           Em         A7
E|-------------------------------------------------------------------||
B|-------------------------------------------------------------------||
G|------5-3--x--5-3---0-3-2--0--------------------3-2----------------||
D|------------------------------3--2-0-2---0-2-3---------------------||
A|--4-5--------------------------------------------------------------||
E|-------------------------------------------------------------------||

Still my tongue tied young pride, I'd not let my love for you show.
In case you'd say no.

   Dm        Bb    Gm7  A7     Dm              Gm7   A7
E|-------------------------------------------------------------------||
B|---------------------------------------------------2---------------||
G|-----------3---2-1---2-----------------5---4-3---2-----------------||
D|----0-3--0-------------2--------0-3--0-----------------------------||
A|--0---------------------------0------------------------------------||
E|-------------------------------------------------------------------||

To Russia I flew but there and then, I suddenly knew you'd care again. 

      D     D7    Gm      Gm7   Dm    A7     Dm
E|-------------------------------------------------------------------||
B|----3-------------------------------2------3-----------------------||
G|--2---2---------5-5---3-0-----3---2---3--2-------------------------||
D|---------4-0---------------2---------------------------------------||
A|-------------------------------------------------------------------||
E|-------------------------------------------------------------------||

My running around is through, I fly to you from Russia with love. 


* * *

For more tabs from secret agent films and TV:
            
Submit corrections

comments powered by Disqus
↑ Back to top | Misc Soundtrack Tabs for James Bond - From Russia With Love. Lyrics for acoustic guitar and electric guitar. Tablatures and chords are parodies/interpretations of the original songs. You may use it for private study, scholarship, research or language learning purposes only