>
 >
Jackass Theme 2

Jackass Theme 2 Guitar Tabs

Misc Soundtrack - Jackass Theme 2 chords, tabs, tablatures, lyrics

Guitar lessons | Add/correct | Request | Top 50 tabs Artists:  A B C D E F G H I J K L M N O P Q R S T U V W X Y Z 0-9

Jackass Theme 2 Guitar Tabs – Misc Soundtrack

CD, Sheet music, Poster

Do you like Jackass Theme 2? Share with your friends now
Bass TabsBass Tabs v2ChordsTabsTabs v2Tabs v3Tabs v4Ukulele
Hi! the intro song of jackass! i love that show! now on to the song...
Enjoy!

e------------------|
B-3---5--5/7--7----|
G-4---5--5/7----7~-|
D-0---0--0---------|   You can strum however u want cuz its kind 
A------------------|   a hard to tab the strumming to listen to the song
E------------------|   and the strumming...

e---------------------------------|-------------------------|
B-5--3--1--0-0-0--0-0-0-0--0------|-0-0-0--0-0-0-0--0--3--5-|
G-5--4--2--0-0-0--0-0-0-0--0------|-0-0-0--0-0-0-0--0--4--5-|
D----------0-0-0--0-0-0-0--0------|-0-0-0--0-0-0-0--0-------|
A----------2--------2---------1--2|-------------------------|
E---------------------------------|-------------------------|

e---------------------|--------------------------|-------------|
B-5/7-7-7-7-7-7-7-7-7-|-3-3--5/7-7-7-7-7-7-7-7-7-|-5-5--3-3--1-|
G-5/7-7-7-7-7-7-7-7-7-|-4-4--5/7-7-7-7-7-7-7-7-7-|-5-5--4-4--2-|
D---------------------|--------------------------|-------------|
A---------------------|--------------------------|-------------|
E---------------------|--------------------------|-------------|

e------------------------|-------------------------|
B-0-0-0--0-0-0-0--0------|-0-0-0--0-0-0-0--0--3--5-|
G-0-0-0--0-0-0-0--0------|-0-0-0--0-0-0-0--0--4--5-|
D-0-0-0--0-0-0-0--0------|-0-0-0--0-0-0-0--0-------|
A-2--------2--------1--2-|-------------------------|
E------------------------|-------------------------|

e---------------------|------------------------|-------------|
B-5/7-7-7-7-7-7-7-7-7-|-3-3--5/7-7-7-7-7-7-7-7-|-5-5--3-3--1-|
G-5/7-7-7-7-7-7-7-7-7-|-4-4--5/7-7-7-7-7-7-7-7-|-5-5--4-4--2-|
D---------------------|------------------------|-------------|
A---------------------|------------------------|-------------|
E---------------------|------------------------|-------------|

e------------------------|-------------------------|
B-0-0-0--0-0-0-0--0------|-0-0-0--0-0-0-0--0--3--5-|
G-0-0-0--0-0-0-0--0------|-0-0-0--0-0-0-0--0--4--5-|
D-0-0-0--0-0-0-0--0------|-0-0-0--0-0-0-0--0-------|
A-2--------2--------1--2-|-------------------------|
E------------------------|-------------------------|

e---------------------|------------------------|-------------|
B-5/7-7-7-7-7-7-7-7-7-|-3-3--5/7-7-7-7-7-7-7-7-|-5-5--3-3--1-|
G-5/7-7-7-7-7-7-7-7-7-|-4-4--5/7-7-7-7-7-7-7-7-|-5-5--4-4--2-|
D---------------------|------------------------|-------------|
A---------------------|------------------------|-------------|
E---------------------|------------------------|-------------|

e------------------------|--------------------|----|
B-0-0-0--0-0-0-0--0------|-0-0-0--0-0-0-0--0--|--0-|
G-0-0-0--0-0-0-0--0------|-0-0-0--0-0-0-0--0--|--0-|
D-0-0-0--0-0-0-0--0------|-0-0-0--0-0-0-0--0--|--0-|
A-2--------2--------1--2-|--------------------|----|
E------------------------|--------------------|----|

There it is! The jackass theme!





Comments


Popular Misc Soundtrack tabs & chords
Madagascar 2 - Big And Chunky Bass Tabs
Gran Torino Theme Chords
Hair Theme Chords
Gabrielle Theme Tabs
Godzilla Theme Tabs
Indiana Jones Theme Tabs
King Of The Hill Theme 4 Tabs
Lord Of The Ring - The Shire Intro Tabs
Lord Of The Rings - In Dreams 2 Tabs
Theme From Great Expectations Kissing In The Rain Tabs


Song lyrics



↑ Back to top | Tablatures and chords are parodies/interpretations of the original songs. You may use it for private study, scholarship, research or language learning purposes only
© 2014 AZChords.com Contact us | Privacy policy | DMCA | Add/correct tabs | Request tabs | Top 50 tabs