» » »

Its Always Sunny In Philadelphia - Day Man Tabs (ver.1)

Artists:  A B C D E F G H I J K L M N O P Q R S T U V W X Y Z # 

Its Always Sunny In Philadelphia - Day Man Tabs (ver.1)

Misc Soundtrack
Rating:
0/5 (0 votes)

Hard to play? Try these video lessons and learn fast.
                A song we all know and love from It's Always Sunny In Philadelphia :D

Day Man        AAAAAAAAAAAAAAAAAAH
-2-2-x-2-2-x---10-8---------------------------|
-3-3-x-3-3-x---10-8---------------------------|
-2-2-x-2-2-x----------------------------------|
-0-0-x-0-0-x----------------------------------|
-----x-----x----------------------------------|
----------------------------------------------|

Fighter of the nightman     AAAAAAAAAAAAAAH
            -0-0-x-0-0-x---10-8---------------------------|
            -1-1-x-1-1-x---10-8---------------------------|
            -0-0-x-0-0-x----------------------------------|
            -2-2-x-2-2-x----------------------------------|
            -3-3-x-3-3-x----------------------------------|
            ----------------------------------------------|


Champion of the Sun         AAAAAAAAAAAAAAAAAH
            -1-1-x-1-1-x---10-8---------------------------|
            -1-1-x-1-1-x---10-8---------------------------|
            -2-2-x-2-2-x----------------------------------|
            -3-3-x-3-3-x----------------------------------|
            -3-3---3-3-x----------------------------------|
            -1-1---1-1------------------------------------|

You're a master of karate and friendship for everyone
 G
-3-
-3-
-0-
-0-
-2-
-3-

Repeat until you are bored and finish on a big...

DAY MAAAAAAAAAAAAAAAAAAAAAAAAAAN
-2-
-3-
-2-
-0-
---
---

(A full D barre Chord possibly sounds better!)

Epic Tune!
            
Hard to play? Try these video lessons and learn fast. | Correct




comments powered by Disqus
↑ Back to top | Tablatures and chords are parodies/interpretations of the original songs. You may use it for private study, scholarship, research or language learning purposes only