» » »

Misc Soundtrack, Inspector Gadget Bass tabs (ver.1)

Artists:  A B C D E F G H I J K L M N O P Q R S T U V W X Y Z # 

Inspector Gadget Bass tabs (ver.1)

Misc Soundtrack Tabs
Rating:
0/5 (0 votes)
Hard to play? Try these video lessons and learn fast.
                (Theme)
Greetings Mortals...

This is my own full version of the Inspector Gadget theme 1:12. Bass Tuning Standard for
4 string Bass Guitar. I use a funky distortion but i recon not everyone has one. Its a
song so loosen up your fingers before starting. For beginners, play this in Windows 
Player so you can slow down the song. Have fun :D (I sure had).

(Tip, Listen First, Look Then, Listen Again And Look, Then Play)

(Real Bass Players, Play With Their Fingers).
****************************************************************************

              !!!NOTE, EVERYTHING IS TABBED ON ORDER!!!


                          ***SIREN INTRO***

Intro Bass Part, be aware... (00:05 - 00:19)                |*****INFO*****|

G|---------------------------------------------------2-1*|  *1<--- Let ring
D|------0-2---------------------------------------0-2----|
A|0-2-3-------------------------------------0-2-3--------|
E|-------------------------------------------------------|

G|---------------------------------------------------1-3*|  3* <--- Let Ring
D|------0-2---------------------------------------0-2----|
A|0-2-3-------------------------------------0-2-3--------|
E|-------------------------------------------------------|

G|5-4-0----0-3-2-------5-4-0--0-3-2-------------3-2------|  <- |
D|---------------2---2---------------5-4-0--3-2--------------- |   Play This Part
A|------------------------------------------------------------ |   In A Galloping
E|------------------------------------------------------------ |   Way, As How The
                                                             Music Go's.

(00:19 - 00:39)
G|-----------------------------------2-1*|  1* <--- Let Ring For A Brief
D|------0-2---1---0-----------0-2--------|          Moment Of Time.
A|0-2-3-----3---2---1---0-2-3-----3------|
E|---------------------------------------|

G|---------------------------------1-----|
D|------0-2---1---0--------------0-------|
A|0-2-3-----3---2---1------------------0*|
E|--------------------5*-4-3-2-1*--------|  5* <--- Brief Ring, 1* and 0*
                                                    Let Ring.

G|-----------------------------------2-1*|  1* <--- Let Ring For A Brief
D|------0-2---1---0-----------0-2--------|          Moment Of Time.
A|0-2-3-----3---2---1---0-2-3-----3------|
E|---------------------------------------|

G|-------------------|   ----->   G|---------------|
D|------0-2---1---0--|   ----->   D|---------------|
A|0-2-3-----3---2---1|   ----->   A|---------------|
E|-------------------|   ----->   E|3-2-3-2-6-5-9-8|


(00:40 - 00:48)
G|--------------------------------|
D|-----------------11-10--9-8--7-6|  <--- In A Galloping Way Once Again.
A|10---10---9-12------------------|       E.g: 11-10 STOP 9-8 STOP 7-6
E|---9----9------11---------------|       *Listen To The Trumpets*
                                                      ^
G|--------------------------------|                  -- |
D|--------------------------------|                  -- |
A|10---10---9-12----7-6--5-4--3-2-|  <----------------- |
E|---9----9------10------------------------------------ |


(00:49 - 00:55)
G|-----------------------------------2-1*|
D|------0-2---1---0-----------0-2--------|
A|0-2-3-----3---2---1---0-2-3-----3------|
E|---------------------------------------|

G|-------------------|
D|------0-2---1---0--|
A|0-2-3-----3---2---1|
E|-------------------|


(00:56 - 1:12)
G|----------------------------------------------------------------1---|
D|----------------------------------------------------------0**-0-----|
A|-------------------------------12-11-10-9-8-7-6-5-4-3-2-1---------0*|
E|3*-1*---6*-4*---8**-4--13-12**--------------------------------------|

Everything With *: Let Ring.
Everything With **: Brief Ring.


YES! You've Done It!!! Now Scroll Up And Do It Again!
============================================================================
            

comments powered by Disqus
↑ Back to top | Misc Soundtrack Bass for Inspector Gadget. Lyrics for acoustic guitar and electric guitar. Tablatures and chords are parodies/interpretations of the original songs. You may use it for private study, scholarship, research or language learning purposes only