>
 >
Indiana Jones Theme

Indiana Jones Theme Guitar Tabs

Misc Soundtrack - Indiana Jones Theme chords, tabs, tablatures, lyrics

Guitar lessons | Add/correct | Request | Top 50 tabs Artists:  A B C D E F G H I J K L M N O P Q R S T U V W X Y Z 0-9

Indiana Jones Theme Guitar Tabs – Misc Soundtrack

CD, Sheet music, Poster

Do you like Indiana Jones Theme? Share with your friends now
TabsTabs v2Tabs v3Tabs v4
THE INDIANA JONES THEME (Tema de Indiana Jones)

Based on the vídeo (baseado no video)



This song have a medium dificulty for the musicians.
Esta música apresenta média dificuldade para os músicos.

e-----------------------------------------------------------|
b-----------------------------------------------------------|
g-----------------------------------------------------------|
d-5-5-5-5-555-5--555-5--5-5555—5----------------------------|
a-----------------------------------------------------------|
e-----------------------------------------------------------|

e--------8-----------------------13------------10-12--------|
b------8---------6---------10-12---------12-13--------------|
g-9h10-------7-9-------12-------------14--------------------|
d-----------------------------------------------------------|
a-----------------------------------------------------------|
e-----------------------------------------------------------|

e--------8---10--12--13--------12-10---12-10---12-10---12-10-|
b------8------------------8-8--------8-------8-------8-------|
g-9-10-------------------------------------------------------|
d------------------------------------------------------------|
a------------------------------------------------------------|
e------------------------------------------------------------|

e--------8-----------------------13------------10-12--------|
b------8---------6---------10-12---------12-13--------------|
g-9h10-------7-9-------12-------------14--------------------|
d-----------------------------------------------------------|
a-----------------------------------------------------------|
e-----------------------------------------------------------|

e--------8---10--12--13--------12-10---12-10---12-10---12-10-|
b------8------------------8-8--------8-------8-------8-------|
g-9-10-------------------------------------------------------|
d------------------------------------------------------------|
a------------------------------------------------------------|
e------------------------------------------------------------|

e-------------------------------------------------------------|
b-------------------------------------------------------------|
g------------------------9---------------------------9--------|
d-------------------------------------------------------------|
a--7-10-8-----8---7h8h10--------7-10-8----8--7h8h10-----------|
e----------10--------------------------10---------------------|




e-------------------------------------------------------------|
b-------------------------------------------------------------|
g--7-9-10--7-10—8h7----------8-7--------7--------7—5h4h5------|
d-------------------10----10------5-5-5---5-5-5---------------|
a-------------------------------------------------------------|
e-------------------------------------------------------------|

e------------------------------------------------------------|
b------------------------------------------------------------|
g------------------------9-----------------------------------|
d------------------------------------------------------------|
a--7-10-8-----8---7h8h10--------7-10-8----8—6h5--------------|
e----------10--------------------------10--------8-----------|

e-------------------------------------------------------------|
b-------------------------------------------------------------|
g----------------------9----7-9-10---------10-------10—8h7h8--|
d-----------------------------------8-8-8-----8-8-8-----------|
a--7-10-8----8-7h8h10-----------------------------------------|
e---------10--------------------------------------------------|

e-------------------------------------------------------------|
b-------------------------------------------------------------|
g----10-------10-------10-8h7h8---10-------10—------10--------|
d--8----8-8-8----8-8-8----------8----8-8-8----8-8-8-----------|
a-------------------------------------------------------------|
e-------------------------------------------------------------|


e-------------------------------------------------------------|
b---------------------------------------8---------------------|
g---8h7h8-------8-------8------8--8--10-----------------------|
d---------6-6-6---6-6-6---6-6---------------------------------|
a-------------------------------------------------------------|
e-------------------------------------------------------------|

e--------8-----------------------13------------10-12--------|
b------8---------6---------10-12---------12-13--------------|
g-9h10-------7-9-------12-------------14--------------------|
d-----------------------------------------------------------|
a-----------------------------------------------------------|
e-----------------------------------------------------------|

e--------8---10--12--13--------12-10---12-10---12-10---13-12-|
b------8------------------8-8--------8-------8-------8-------|
g-9-10-------------------------------------------------------|
d------------------------------------------------------------|
a------------------------------------------------------------|
e------------------------------------------------------------|


e---13-12-10-8------------------------------------------------|
b-8-----------------------------------------------------------|
g-----------------10-9-7-5------------------------------------|
d-------------------------------------------------------------|
a----------------------------8-7-5-3--------------------------|
e-------------------------------------------------------------|

Half up tone (C#) - meio tom acima (C#)


e---------9-------------------14---------------13-------------|
b-------9--------7------11-13---------13-14-16----------------|
g—10h11-----8-10-----13------------15-------------------------|
d-------------------------------------------------------------|
a-------------------------------------------------------------|
e-------------------------------------------------------------|

e---------9-11-13-14------13-11---13-11---13--11---14-13--11-9--|
b-------9-------------9-9-------9-------9--------9--------------|
g-10-11---------------------------------------------------------|
d---------------------------------------------------------------|
a---------------------------------------------------------------|
e---------------------------------------------------------------|

2:00

e-------------------------------------------------------------|
b-------------------------------------------------------------|
g-----13----------13----------13---11h10h11-------------------|
d--11----11-11-11----11-11-11---------------------------------|
a-------------------------------------------------------------|
e-------------------------------------------------------------|

e------------------------------------------------------------|
b------------------------------------------------------------|
g-----13----------13----------13---11h10h11------------------|
d--11----11-11-11----11-11-11--------------------------------|
a------------------------------------------------------------|
e------------------------------------------------------------|

e-------------------------------------------------------------|
b-------------------------------------------------------------|
g-----13----------13----------13---11h10h11------11-------11--|
d--11----11-11-11----11-11-11---------------9-9-----9-9-9-----|
a-------------------------------------------------------------|
e-------------------------------------------------------------|

     orchestra part  (parte da orquestra)  (2:09)

e------------------------------------------------------------|
b------------------------------------------------------------|
g—10h9h10-----10----12----14---------------------------------|
d-----------8----10----12----12------------------------------|
a------------------------------------------------------------|
e------------------------------------------------------------|

e----------------------------------------------------------------|
b-----------------------------------------3-6-4------------------|
g----—2/4--2-4-5----2-4---2-4-5----2-4-5----------2-4-5-4-3------|
d-0--------------1--------------1---------------1------------0---|
a----------------------------------------------------------------|
e----------------------------------------------------------------|


e-----------------------------------------------------------|
b------------------------------------7-7-------7-7------8-8-|
g-2/4-2-4-5---2-4---6-7-9----9---7-9-------7-9-----9-11-----|
d-----------1-------------4---------------------------------|
a-----------------------------------------------------------|
e-----------------------------------------------------------|

e------------------------------------------------------------|
b-8-12-10-----------12-10-----------12-10--------------------|
g---------11--------------11--------------11-12--------------|
d------------7-9-10----------7-9-10---------------12---------|
a------------------------------------------------------------|
e------------------------------------------------------------|

2:55-2:59

e------------------------------------------------------------|
b------------------9-8-7--------------8----------------------|
g--10-8---4-6-7----------------------------------------------|
d------------------------------------------------------------|
a------------------------------------------------------------|
e------------------------------------------------------------|

e------------------------------------------------------------|
b------7-8------7-8------------------------------------------|
g-----------4-5-------5-5-7-7--------------------------------|
d---9--------------------------------------------------------|
a------------------------------------------------------------|
e------------------------------------------------------------|

D tone – tom de D (3:10)

e---------------------------------------------------------------|
b---------------------------------------------------------------|
g--------------------------------------------------10-13-11-----|
d--12----10-12-13----10-12---10-12-13-----10-12-13--------------|
a------------------9------------------9-------------------------|
e---------------------------------------------------------------|

e-------------------------------------------------------------|
b---------------------10----10-11------10----10-11—11---------|
g------------------------10---------------11------------------|
d---10-12-13-12-11--------------------------------------------|
a-9-----------------------------------------------------------|
e-------------------------------------------------------------|

3:34 (valsa theme)

e-------------------------------------------------------------|
b---11-11-11-11-11-11-11--11--9--9-9-999-99-9-999-------------|
g-------------------------------------------------------------|
d---8--8--8--8--8--8--8---8---6--6-6-666-66-6-666-------------|
a-------------------------------------------------------------|
e-------------------------------------------------------------|

e-------------------------------------------------------------|
b---11-11-11-11-11-11-11--9-9-9-9-9-9-------------------------|
g-------------------------------------------------------------|
d---8--8--8--8--8--8--8---6-6-6-6-6-6-------------------------|
a-------------------------------------------------------------|
e-------------------------------------------------------------|

e-------------------------------------------------------------|
b---11-11-11-11-11-11-11--11--9--9-9-999-99-9-999-------------|
g-------------------------------------------------------------|
d---8--8--8--8--8--8--8---8---6--6-6-666-66-6-666-------------|
a-------------------------------------------------------------|
e-------------------------------------------------------------|

e-------------------------------------------------------------|
b---11-11-11-11-11-11-11--9-9-9-9-9-9-------------------------|
g-------------------------------------------------------------|
d---8--8--8--8--8--8--8---6-6-6-6-6-6-------------------------|
a-------------------------------------------------------------|
e-------------------------------------------------------------|

e--------------------------------------------------------------|
b--11-11-11-11-11-11-11----------------------------------------|
g--------------------------------------------------------------|
d--8---8--8-8--8--8--8-----------------------------------------|
a--------------------------------------------------------------|
e--------------------------------------------------------------|

Back to the theme – de volta ao tema (4:00)


e-------------------------------------------------------------|
b--6-8-9--------9--------9—7h6h7------------------------------|
g--------6-6-6-----6-6-6--------------------------------------|
d-------------------------------------------------------------|
a-------------------------------------------------------------|
e-------------------------------------------------------------|

e-------------------------------------------------------------|
b--6-8-9--------9--------9—7h6h7------------------------------|
g--------6-6-6-----6-6-6--------------------------------------|
d-------------------------------------------------------------|
a-------------------------------------------------------------|
e-------------------------------------------------------------|

e-------------------------------------------------------------|
b--6-8-9--------9--------9—7h6h7--------7-------7-9--11-------|
g--------6-6-6-----6-6-6----------4-4-4---4-4-4---------------|
d-------------------------------------------------------------|
a-------------------------------------------------------------|
e-------------------------------------------------------------|

e-------------------------------------------------------------|
b-------------------------------------------------------------|
g-------------------------------------------------------------|
d-------------------------------------------------------------|
a--6-6-6-6-6-6-6666-6-6-666-666--6----------------------------|
e-------------------------------------------------------------|

4:17 (F tone) – tom de F


e------------13-----------------------18------------15-17-----|
b---------13-----------11----------15------15-17-18-----------|
g---14h15-------12--14------15--17----------------------------|
d-------------------------------------------------------------|
a-------------------------------------------------------------|
e-------------------------------------------------------------|


e-----------13---15-17-18-----------17-15-----17-15----17-15--|
b--------13------------------13-13--------13--------13--------|
g--14-15------------------------------------------------------|
d-------------------------------------------------------------|
a-------------------------------------------------------------|
e-------------------------------------------------------------|


e------17-15--------------------------------------------------|
b---13--------------------------------------------------------|
g-------------------------------------------------------------|
d-------------------------------------------------------------|
a-------------------------------------------------------------|
e-------------------------------------------------------------|


e------------13-----------------------18------------15-17-----|
b---------13-----------11----------15------15-17-18-----------|
g---14h15-------12--14------15--17----------------------------|
d-------------------------------------------------------------|
a-------------------------------------------------------------|
e-------------------------------------------------------------|


e-----------13---15-17-18-----------17-15-----17-15----17-15--|
b--------13------------------13-13--------13--------13--------|
g--14-15------------------------------------------------------|
d-------------------------------------------------------------|
a-------------------------------------------------------------|
e-------------------------------------------------------------|

e------18-17----18-17-15-13-----------------------------------|
b---13-------13-----------------------------------------------|
g----------------------------15-14-12-10----------------------|
d-------------------------------------------------------------|
a------------------------------------------13-12-10-8---------|
e-------------------------------------------------------------|


(4:52)

e------------------8------------------8--------------16--16-16-18-|
b--------11--11-11----------11--11-11------16-16--16--------------|
g--10-10--------------10-10---------------------------------------|
d-----------------------------------------------------------------|
a-----------------------------------------------------------------|
e-----------------------------------------------------------------|


e-15-20~~-----------------------------------------------------|
b-------------------------------------------------------------|
g-------------------------------------------------------------|
d-------------------------------------------------------------|
a--------8-8-8-8-8--------------------------------------------|
e-------------------------------------------------------------|


Enjoy, sorry my poor english.


Aproveite!

Morgangc





Comments


Popular Misc Soundtrack tabs & chords
Dr Horribles Sing-along Blog - So They Say Bass Tabs
Cowboy Bebop - Blue Chords
Godspell - Save The People Chords
Kuch Kuch Hota Hai Theme Chords
28 Weeks Later - Don Abandons Alice Tabs
Breaking Bad Theme Tabs
Crossroads Tabs
Harry Potter And The Half Blood Prince - When Ginny Kissed Harry Tabs
Long Hard Road Out Of Hell Tabs
A Very Potter Musical - Gotta Get Back To Hogwarts Ukulele


Song lyrics



↑ Back to top | Tablatures and chords are parodies/interpretations of the original songs. You may use it for private study, scholarship, research or language learning purposes only
© 2014 AZChords.com Contact us | Privacy policy | DMCA | Add/correct tabs | Request tabs | Top 50 tabs