» » »

Misc Soundtrack, Inception - Waiting For A Train Tabs (ver.1)

Artists:  A B C D E F G H I J K L M N O P Q R S T U V W X Y Z # 

Inception - Waiting For A Train Tabs (ver.1)

Misc Soundtrack Tabs
Rating:
0/5 (0 votes)
Inception - Waiting For A Train lessons Tabs too difficult? Try these video lessons and learn fast
                (Intro)


Fixed it!
Everything is 100% correct.

It starts at 00:19

E---------------------------|
B---------------------------|
G-----9~--------------------|
D---7-----------------------|
A---------------------------|
E---------------------------|

E---------------------------|
B---------------------------|
G----7-9-10-----------------|
D---------8~----------------|
A---------------------------|
E---------------------------|

E---------------------------|
B---------------------------|
G---------9~----------------|
D---7-5-7-------------------|
A---------------------------|
E---------------------------|

E---------------------------|
B---------------------------|
G----7-9-10-----------------|
D---------8~----------------|
A---------------------------|
E---------------------------|

E---------------------------|
B-----10~-------------------|
G---9-----------------------|
D---------------------------|
A---------------------------|
E---------------------------|

E---------------------------|
B---------8~----------------|
G---9-7-9-------------------|
D---------------------------|
A---------------------------|
E---------------------------|

E---------------------------|
B---------10~---------------|
G---9-7-9-------------------|
D---------------------------|
A---------------------------|
E---------------------------|

E---------------------------|
B------6~-------------------|
G---9-----------------------|
D---------------------------|
A---------------------------|
E---------------------------|
            

comments powered by Disqus
↑ Back to top | Misc Soundtrack Tabs for Inception - Waiting For A Train. Lyrics for acoustic guitar and electric guitar. Tablatures and chords are parodies/interpretations of the original songs. You may use it for private study, scholarship, research or language learning purposes only