» » »

Misc Soundtrack, In Bruges Tabs (ver.1)

Artists:  A B C D E F G H I J K L M N O P Q R S T U V W X Y Z # 

In Bruges Tabs (ver.1)

Misc Soundtrack Tabs
Rating:
0/5 (0 votes)
In Bruges lessons Tabs too difficult? Try these video lessons and learn fast
                (Theme)
In Bruges
Carter Burtwell


Tuning: EADGBe

Transposed from Cm to Em.

Introduction

e|---------------------|---------------------|---------------------|-------------------|
B|---------------------|---------------------|---------------------|-------------------|
G|---------------------|-----------------2---|-------------2---4---|---------2---4---5-|
D|---------2---4---5---|---------4---5-------|---------5-----------|-------------------|
A|-----2---------------|-----2---------------|-----2---------------|-----2-------------|
E|-0-------------------|-0-------------------|-0-------------------|-0-----------------|

e|---------------------|---------------------|---------------------|--------------------|
B|---------------------|---------------------|---------------------|--------------------|
G|-----------------2---|-----------------2---|---------------------|--------------------|
D|---------4---5-------|---------1---4-------|---------2---5---4---|---------2----5h4---|
A|-----2---------------|-----2---------------|-----2---------------|-----2--------------|
E|-0-------------------|-0-------------------|-0-------------------|-0------------------|

Main Theme

e|---------0-3-2---|-0-------------|------------|-----------------|-------------------|
B|-------0-----0---|---3---0-----3-|-0----------|-------0---------|-------------------|
G|-------------0---|---------------|-----2------|-0-------0-------|-----------------2-|
D|---------2-------|---------------|-2----------|---------2---4---|-2---1-------1---4-|
A|-----2-----------|-----------2---|-----3------|-----2-------2---|---------2---------|
E|-0---------------|-------0-------|-----5------|-0-----------3---|-----0-------------|

e|---------0-3-2---|-0-------------|------------|-------------------|-----------------2---3-|
B|-------0-----0---|---3---0-----3-|-0----------|-0-----0-----------|-4-------4---5---------|
G|-------------0---|---------------|----2-------|---------0---------|-----------------------|
D|---------2-------|---------------|-2----------|---------2---4---1-|-----4-----------------|
A|-----2-----------|-----------2---|----3-------|-----2-------2-----|-2---------------------|
E|-0---------------|-------0-------|----5-------|-0-----------3-----|-----------------------|

e|------------6-8---|---------10-----8-6--------|---------3-5-6---5-|-----------------7---|
B|-------8-10-------|-11-10----------------10---|-------4-----------|-8---7---------------|
G|------------------|---------------------------|-------------------|-------------8-------|
D|-----8------------|-------------8-------------|-----5-------------|---------------------|
A|-6----------------|---------6-----------------|-3-----------------|---------9-----------|
E|------------------|---------------------------|-------------------|-----7---------------|

e|-5-7-8------------|-12---14---|
B|------------------|-13---16---|
G|------------------|-14---16---|
D|------------------|-----------|
A|------------------|-----------|
E|------------------|-----------|

Try and sustain every note you can, and have fun playing this. It sounds great when nailed.

************************************

| /   slide up
| \   slide down
| h   hammer-on
| p   pull-off
| ~   vibrato
| +   harmonic
| x   Mute note
| b   Bend
| pb  Pre-bend
| br  Bend release
| pbr Pre-bend release
| brb Bend release bend

************************************
            
Submit corrections

comments powered by Disqus
↑ Back to top | Misc Soundtrack Tabs for In Bruges. Lyrics for acoustic guitar and electric guitar. Tablatures and chords are parodies/interpretations of the original songs. You may use it for private study, scholarship, research or language learning purposes only