>
 >
Howls Moving Castle - Promise To The World

Howls Moving Castle - Promise To The World Guitar Tabs

Misc Soundtrack - Howls Moving Castle - Promise To The World chords, tabs, tablatures, lyrics

Guitar lessons | Add/correct | Request | Top 50 tabs Artists:  A B C D E F G H I J K L M N O P Q R S T U V W X Y Z 0-9

Howls Moving Castle - Promise To The World Guitar Tabs – Misc Soundtrack

CD, Sheet music, Poster

Do you like Howls Moving Castle - Promise To The World? Share with your friends now
Tabs
Grand Piano
     Q.     E  S. T E     Q    E  E  S. T E     Q    E  E  S. T E
E||--4---------2----0--|--2-------7----------|--0------------------|
B||--------------------|-------0-------------|-------------4----2--|
G||--1------3----------|---------------------|----------1----------|
D||--------------------|--1-------4--2----1--|--2------------------|
A||--2-----------------|--2------------------|----------1----------|
E||--------------------|----------4----------|--4----4--4----------|

  Q    E  E  S. T E     E  E  E  E  T T T T S S    E  E  E  E  T T T T S S
----------4----------|--------------------------|--------------------------|
--4------------------|--2-----2-----2---0-----2-|--0-----0-----0---------0-|
--1----1-------------|-----2----------------2---|-----1------------2---1---|
----------1----------|-----2-----2--------------|-----1-----2--------------|
--2----------4----2--|--4--------0--------------|-----------2--------------|
---------------------|--------------------------|--4-----------------------|

  E  S. T E  E  E  E     E  E.  T T Q    S S    E  S. T S S E  S. T E
----------------------|--------------------4-|--4-------2-0-4-------7--|
----------------------|-------------0----L---|-------------------------|
--2-------1-----------|----------------------|-------------------------|
-------------4-----2--|--2-------------------|----------1------1-------|
-----0----2-----4-----|--0--2---L---0----L---|-----2--------2----------|
--2-------4--2--2-----|--2----------2----L---|--4-------------------4--|

  E  S. T E  E  S. T S S    E  S. T E  E  S. T S S    E  S. T E  E  S. T S S
--4------------------4-7-|--5------------------4-2-|--2--------------------4-|
-------------------------|----------2--2-----------|---------------------0---|
----------1-----1--------|-------------------------|-------------------------|
-----2-------2-----------|-------------------------|----------4--------------|
--4------------------4---|-----0----4--0--4--------|--0--4-------4--0--------|
-------------------------|--2------------------2---|---------------------2---|

  E  S. T S S E  S. T S S    E  S. T E  E  S. T E     E  S. T E  E  S. T S S
--4-------2-0-4-------4-7-|--7------------------7--|--5--4-------4-------2-0-|
--------------------------|------------------------|----------2--------------|
--------------------------|------------------------|-------------------------|
----------1------1--------|----------------2-------|----------1-----1--------|
-----2--------2-----------|----------2-------------|-----2-------2-----------|
--4-------------------4---|--0--4-------4-------7--|--4------------------4---|

  E  S. T E  E  S. T E     E  S. T E  E  S. T E     E  S. T E  E  S. T S S
--0------------------7--|--9-------0--0-------0--|--7----------0-------0-7-|
------------------------|----------------4-------|-------------------------|
-------------1----------|-------------6----------|-------------1-----------|
----------2-----2-------|----------6-----6----2--|----------2-----2--------|
-----2------------------|-----7------------------|-----2---------------2---|
--0------------------7--|--9---------------------|--0----------------------|

  E  S. T E  E  S. T E     E  S. T E  E  S. T E     E  S. T E  E   S.T E
--7--5----4-----4----5--|--7------------------7--|--9-------0--9--11---9--|
-------------7-------0--|----------0--5--0-------|------------------------|
----------6-------------|------------------------|-------------6----------|
-----7----------6-------|-----6---------------6--|----------6-------------|
--9----------7----------|--7---------------------|-----7----------11---7--|
------------------------|------------------------|--9---------------------|

  E  S. T E  E  S. T E      E  S. T E  E  S. T S S    Q.     E.  T T S S
--7-------0--7-------9--|------7----9--9--7----5---|--4------2---L-----4-|
------------------------|--10----------------------|-----------------0---|
-----8------------------|------------------------6-|---------------------|
-------------6-------6--|---7----------------------|---------2---L---1---|
----------6-----6-------|---9----------------------|--2------------------|
--4--7------------------|--------------------------|--4------------------|

  E  S. T S S E  S. T E     E  S. T E  E  S. T S S    E  S. T E  E  S. T S S
--4-------2-0-4-------7--|--4------------------4-7-|--5------------------4-2-|
-------------------------|-------------------------|----------2--2-----------|
-------------------------|----------1-----1--------|-------------------------|
----------1------1-------|-----2-------2-----------|-------------------------|
-----2--------2----------|--4------------------4---|-----0----4--0--4--------|
--4-------------------4--|-------------------------|--2------------------2---|

  E  S. T E  E  S. T S S    E  S. T S S E  S. T S S    E  S. T E  E  S. T E
--2--------------------4-|--4-------2-0-4-------4-7-|--7------------------7--|
---------------------0---|--------------------------|------------------------|
-------------------------|--------------------------|------------------------|
----------4--------------|----------1------1--------|----------------2-------|
--0--4-------4--0--------|-----2--------2-----------|----------2-------------|
---------------------2---|--4-------------------4---|--0--4-------4-------7--|

  E  S. T E  E  S. T S S    E  S. T E  Q    S. T     E   S.T E   E   S.T  E
--5--4-------4-------2-0-|--0--------------------|--12----------12--11----9--|
----------2--------------|-----------------------|-----------0-------0-------|
-------------------------|-----------------------|---------------9-----------|
----------1-----1--------|-------------2----L----|---------------------------|
-----2-------2-----------|----------2--2----L----|------11---------------11--|
--4------------------4---|--2--4-------4----L----|--12-----------------------|

  E  S. T E  E  S. T E      E   S.T E   E   S.T  E     E  S. T E  E  S. T E
--7-------4--0----------|--12----------12--11----9--|--7-------4--0----------|
------------------------|-----------0-------0-------|------------------------|
------------------------|---------------9-----------|------------------------|
---------------------2--|---------------------------|---------------------2--|
----------6-----2-------|------11---------------11--|----------6-----2-------|
--4--7-------0----------|--12-----------------------|--4--7-------0----------|

  E  S. T E  E  S. T E     E  S. T E  E  S T T E     Q.     E  S. T E
--9----------9--7----5--|--4-------2--0--------0--|--2--------------0--|
-------------7----------|----------4-------4---0--|--2------2--4-------|
----------6-----6-------|-----4----------1--------|--2-----------------|
-----7---------------7--|--6----------2-----------|--4-----------------|
--9---------------------|-------------------------|--------------------|
------------------------|-------------------------|--------------------|

  Q    S. T E.  T T E.  T T T T S    E  S. T S S E  S. T E
--0-----------------------------4-|--4-------2-0-4-------7--|
-------4----2---L---0---L---4-----|-------------------------|
----------------------------------|-------------------------|
--2-------------------------------|----------1------1-------|
--0-------------------------------|-----2--------2----------|
----------------------------------|--4-------------------4--|

  E  S. T E  E  S. T S S    E  S. T E  E  S. T S S    E  S. T E  E  S. T S S
--4------------------4-7-|--5------------------4-2-|--2--------------------4-|
-------------------------|----------2--2-----------|---------------------0---|
----------1-----1--------|-------------------------|-------------------------|
-----2-------2-----------|-------------------------|----------4--------------|
--4------------------4---|-----0----4--0--4--------|--0--4-------4--0--------|
-------------------------|--2------------------2---|---------------------2---|

  E  S. T S S E  S. T S S    E  S. T E  E  S. T E      E  S S S S E  E  T T S
--4-------2-0-4-------4-7-|--7------------------7--|------7-5-4---4---------7-|
--------------------------|----------------0-------|--10--------2----7--L-----|
--------------------------|---------------------8--|--------------------------|
----------1------1--------|-------------6----------|---7----------6-----------|
-----2--------2-----------|----------6-------------|---9----------6-----------|
--4-------------------4---|--4--7------------------|--------------------------|

  E   S.T S S E   E.  T T    E  S. T S S Q    S S    E  E  E  E  E  E
--9-------4-5-4-----------|--5--4----2---4----2-0-|--0--0-----4-----7--|
-----10-------------------|------------2----------|-----0-----5-----9--|
--------------1--11---L---|-----------------------|--------------------|
--7-----------1-----------|--2--------------------|--------------------|
--9-----------------------|--4-----------2--------|--2-----------------|
--------------------------|--------------4--------|--0-----0-----0-----|

  E   Q.     S. E  T
-----12------L-------||
-----12------L-------||
---------------------||
---------------------||
---------------------||
--0------------------||

Duration Legend
---------------
W - whole
H - half
Q - quarter
E - 8th
S - 16th
T - 32nd
X - 64th
. - note dotted
|-n-|  - n-tuplets





Comments


Popular Misc Soundtrack tabs & chords
Annie - Tomorrow Chords
Cowboy Bebop - Dont Bother None Chords
Dreamgirls - When I First Saw You Chords
Dylan Modern Family - In The Moonlight Do Me Chords
Gran Torino Theme Chords
High School Musical 3 - Can I Have This Dance Chords
Gangster - Ya Ali Tabs
Kikis Delivery Service - Rouge Message Tabs
King Of The Hill Theme Tabs
13 The Musical - A Little More Homework Ukulele


Song lyrics



↑ Back to top | Tablatures and chords are parodies/interpretations of the original songs. You may use it for private study, scholarship, research or language learning purposes only
© 2014 AZChords.com Contact us | Privacy policy | DMCA | Add/correct tabs | Request tabs | Top 50 tabs