>
 >
Honor The Pacific Theme

Honor The Pacific Theme Guitar Tabs

Misc Soundtrack - Honor The Pacific Theme chords, tabs, tablatures, lyrics

Guitar lessons | Add/correct | Request | Top 50 tabs Artists:  A B C D E F G H I J K L M N O P Q R S T U V W X Y Z 0-9

Honor The Pacific Theme Guitar Tabs – Misc Soundtrack

CD, Sheet music, Poster

Do you like Honor The Pacific Theme? Share with your friends now
Tabs
----------1-----|----------1-----|                                  
------2-4---4---|------2-4---4---|                                  
----------------|----------------|                                  
----------------|----------------|                                  
4---------------|4---------------|                                  
----------------|----------------|                                  
                                                                    
                                                            
----------------|-1--------------|-2-1-4-1--------|----------------|
-2---4----------|----------------|----------------|-4--------------|
-1--------------|----------------|----------------|----------------|
-3--------------|----------------|----------------|----------------|
-4---3----------|-1--------------|----------------|----------------|
----------------|----------------|-2--------------|-4--------------|
                                                                    
                                                               
----------------|----------------|----------1-----|----------1-----|
-2-1------------|----------------|------2-4---4---|------2-4---4---|
-----1----------|-3--------------|----------------|----------------|
----------------|----------------|----------------|----------------|
-1--------------|----------------|4---------------|4---------------|
----------------|-2--------------|----------------|----------------|
                                                                    
                                                            
----------------|-1--------------|-2-1-4-1--------|----------------|
-2---4----------|----------------|----------------|-4--------------|
-------1--------|----------------|----------------|----------------|
----------------|----------------|----------------|----------------|
-4---3----------|-1--------------|----------------|----------------|
----------------|----------------|-2--------------|-4--------------|
                                                                    
                                                               
-9-8------------|-6--------------|----------1-----|----------1-----|
-----9----------|----------------|------2-4---4---|------2-4---4---|
----------------|----------------|----------------|----------------|
-8--------------|----------------|----------------|----------------|
----------------|-9--------------|-4--------------|4---------------|
----------------|----------------|----------------|----------------|
                                                                    
                                                                 
----------1-----|----------------|                                  
------2-4---4-1-|-2---2-1--------|                                  
----------------|---1------------|                                  
----------------|----------------|                                  
4---------------|-1--------------|                                  
----------------|----------------|                                  

                                                              
----------------|----1-----------|----------------|----1-----------|
-----2-1--------|2-4---4-1-------|-----2-1--------|2-4---4-1-------|
-3-1------------|----------------|-3-1------------|----------------|
----------------|----------------|----------------|----------------|
----------------|1---------------|----------------|1---------------|
-2------------- |----------------|-2--------------|----------------|
                                                                    
                                                                
----------------|----1-4---------|----------------|                 
-----2-1--------|2-4-------------|---2-4----------|                 
-3-1------------|----------------|-3-----1--------|                 
----------------|----------------|----------------|                 
----------------|1---------------|----------------|                 
-2--------------|----------------|-2--------------|                 
                                                                    
                                                           
----------------|-1--------------|-2-1-4-1--------|----------------|
-2---4----------|----------------|----------------|-4--------------|
-------1--------|----------------|----------------|----------------|
----------------|----------------|----------------|----------------|
-4---3----------|-1--------------|----------------|----------------|
----------------|----------------|-2--------------|-4--------------|
                                                                    
                                                             
-9-8------------|-6--------------|---1-4----------|----------------|
-----9----------|----------------|-2-----2--------|-4--------------|
----------------|----------------|----------------|----------------|
-8--------------|----------------|----------------|----------------|
----------------|-9--------------|-1--------------|----------------|
----------------|----------------|----------------|-4--------------|
                                                                    
                                                               
-----------1----|----------1-----|----------1-----|                 
-2-----2-4---4--|------2-4---4---|-----2-4---4-2--|                 
----------------|----------------|----------------|                 
----------------|----------------|----------------|                 
-4--------------|-4--------------|-4--------------|                 
----------------|----------------|----------------|





Comments


Popular Misc Soundtrack tabs & chords
1920-evil Returns - Majboor Tu Bhi Kahin Chords
A Mighty Wind - Main Street Rag Chords
Children Of Eden - I Am Not A Stranger To The Rain Chords
Do You Wanna Build A Snowman Chords
High School Musical 2 - I Dont Dance Chords
Buffy The Vampire Slayer Theme Tabs
Flame Still Burns Tabs
Flinstones Theme (Intro) Tabs
Lord Of The Rings - In Dreams Tabs
Running Man Tabs


Song lyrics



↑ Back to top | Tablatures and chords are parodies/interpretations of the original songs. You may use it for private study, scholarship, research or language learning purposes only
© 2014 AZChords.com Contact us | Privacy policy | DMCA | Add/correct tabs | Request tabs | Top 50 tabs