» » »

Misc Soundtrack, Home Improvment Tabs (ver.1)

Artists:  A B C D E F G H I J K L M N O P Q R S T U V W X Y Z # 

Home Improvment Tabs (ver.1)

Misc Soundtrack Tabs
 Rating:
4/5 (4 votes)
Home Improvment lessons Tabs too difficult? Try these video lessons and learn fast
1
                (Theme)
home improvment theme
when i did this i did not
have the song or my guitar.
so please let me know if
there are any corictions
thanks:D

e----------------------------------------------------|
B----------------------------------------------------|
G----------------------10----------------------------|
D-----10-12--x-x-12-12----------10-12--x-x-12-12-10--|
A--12------------------------12----------------------|
E----------------------------------------------------|

e-----------------------------------------------------|
B-----------------------------------------------------|
G----------------------10---/12-10----10--------------|
D-----10-12--x-x-12-12-------------12----12-x-x-------|
A--12-------------------------------------------------|
E-----------------------------------------------------|

e----------------------------------------------------|
B-------------------10-------------------------------|
G-----10-12---10-12-----12\10----10------------------|
D--12-------------------------12----12---x-x---------|
A----------------------------------------------------|
E----------------------------------------------------|

e-----------------------------------------------------|
B-------------------10~~~~~~~~~~~~~~~~~---------------|
G-----10-12---10-12-----------------------------------|
D--12-------------------------------------------------|(flute interlude)
A-----------------------------------------------------|
E-----------------------------------------------------|

e----------------------------------------------------|
B----------------------------------------------------|
G-------------10-------------------------------------|
D--12--12-12--10------10-12--12-12--10------10-------|
A--12--12-12-------12----12--12-12--10---12----------|
E----------------------------------------------------|

e----------------------------------------------13----|
B-------------------------------------------15-------|
G-------------10--/12--10----10----------------------|
D--12--12-12--10----------12----12---x-x-------------|
A--12--12-12-----------------------------------------|
E----------------------------------------------------|


e--15--13-15-/17---15\13----13-----------------13----|
B------------------------15----15-----------15-------|
G----------------------------------------------------|
D------------------------------------x-x-------------|
A----------------------------------------------------|
E----------------------------------------------------|

e--15--13-15-/17---17-15-13~~~-----------------13----|
B-------------------------------------------15-------|
G----------------------------------------------------|
D------------------------------------x-x-------------|
A----------------------------------------------------|
E----------------------------------------------------|

e--15--13-15-/17~~~~-|
B--------------------|
G--------------------|
D--------------------|
A--------------------|
E--------------------|

e--7-7---6-6---5-5---3-3------1--2--3---|
B--7-7---6-6---5-5---3-3------1--2--3---|
G--7-7---6-6---5-5---3-3------2--3--4---| ('haouaouh!!!')
D--6-6---5-5---4-4---2-2------3--4--5---|
A--7-7---6-6---5-5---3-3------3--4--5---|
E-----------------------------1--2--3---|

x-muted note
H-hammer on
P-pull off
            
Submit corrections

comments powered by Disqus
↑ Back to top | Misc Soundtrack Tabs for Home Improvment. Lyrics for acoustic guitar and electric guitar. 1 Tablatures and chords are parodies/interpretations of the original songs. You may use it for private study, scholarship, research or language learning purposes only