» » »

Misc Soundtrack, Harry Potter Tabs (ver.6)

Artists:  A B C D E F G H I J K L M N O P Q R S T U V W X Y Z # 

Harry Potter Tabs (ver.6)

Misc Soundtrack Tabs
 Rating:
4/5 (4 votes)
Harry Potter lessons Tabs too difficult? Try these video lessons and learn fast
1
                (Theme)


Standard Tuning
|---0-3-2-0-7-5-2--0-3-2---2------0-3-2-0-7-10-9-8--5-8-7-6---3-0-|
|-0----------------------3---0--0---------------------------0-----|
|-----------------------------------------------------------------|
|-----------------------------------------------------------------|
|-----------------------------------------------------------------|
|-----------------------------------------------------------------|

|---7---7---8-7-6---6-5-4---3-0----7---7---10-9-8---8-7-6---3-0-|
|-8---8---8-------7-------0------8---8---8--------9-------0-----|
|---------------------------------------------------------------|
|---------------------------------------------------------------|
|---------------------------------------------------------------|
|---------------------------------------------------------------|

|----------------------------------------------|
|----------------------------------------------|
|-4-4-4-4-4-4-3-4-5-4-3-4-0--2-2-1-2-------0-3-|
|----------------------------------------2-----|
|------------------------------------3-2-------|
|----------------------------------------------|

|-----------------------------------------|
|-----------------3---------1-------------|
|-4-4-4-4-4-4-3-4---5-4-5-----4-3-4---0---|
|-------------------------3---------2---1-|
|-----------------------------------------|
|-----------------------------------------|

|---------------------------------------------|
|-5-5-5-5-5-5-4-5-6-5-4-5-----------------1-4-|
|-------------------------5-7-7-6-7-----2-----|
|-----------------------------------3-2-------|
|---------------------------------------------|
|---------------------------------------------|

|-----------------------------------------|
|-5-5-5-5-5-5-4-5-8-6-5-6---6-5-4-5---1---|
|-------------------------3---------------|
|-----------------------------------2-----|
|---------------------------------------2-|
|-----------------------------------------|
            
Submit corrections

comments powered by Disqus
↑ Back to top | Misc Soundtrack Tabs for Harry Potter. Lyrics for acoustic guitar and electric guitar. 1 Tablatures and chords are parodies/interpretations of the original songs. You may use it for private study, scholarship, research or language learning purposes only