» » »

Misc Soundtrack, Harry Potter Tabs (ver.3)

Artists:  A B C D E F G H I J K L M N O P Q R S T U V W X Y Z # 

Harry Potter Tabs (ver.3)

Misc Soundtrack Tabs
 Rating:
4/5 (4 votes)
Harry Potter lessons Tabs too difficult? Try these video lessons and learn fast
1
                (Theme)
E-------0--3--2--0--7--5--2---------0--3--2-----2-------------------|
B----0---------------------------------------4-----0-----0----------|
G-----------------------------------------------------0-------------|
D-------------------------------------------------------------------|
A-------------------------------------------------------------------|
E-------------------------------------------------------------------|

E---0--3--2--0--7--10--9--8--5--8--7--6-----3--0-----0-----------------|
B-0----------------11-----9-----9----------------0---------------------|
G------------------12----10----10--------3-----------------------------|
D----------------------------------------------------------------------|
A----------------------------------------------------------------------|
E----------------------------------------------------------------------|


E--3-7---3-7---3-8--7-6-----2-3--7-6-----7----|
B--------------------------------------0------|
G------------------------------------3--------|
D---------------------------------------------|
A---------------------------------------------|
E---------------------------------------------|

E--3-7---3-7---3-10--9--8--5--8--7--6-----3--0------------------------------|
B----------------11-----9-----9--------0-----------0------------------------|
G----------------12----10----10------------------0--------------------------|
D---------------------------------------------------------------------------|
A---------------------------------------------------------------------------|
E---------------------------------------------------------------------------|

(You may need to listen to the song for the next bit as it's mainly background to 
other instruments)

E-0-------0------------------------|
B----0-------0--1------------------|
G---------------------4-----0------|
D------------------4-----2------4--|
A----------------------------------|
E----------------------------------|

E------0---3--2--0---7--5--2------0--3--2------2--------|
A---0---------------------------------------3-----0-----|
D-------------------------------------------------------|
G-------------------------------------------------------|
B-------------------------------------------------------|
E-------------------------------------------------------|

E----0--3--2--0----7--10---9--8----4--8--7--6------3--0--------|
B--0-----------------------------------------------------------|
G------------------------------------------------3-------------|
D--------------------------------------------------------------|
A--------------------------------------------------------------|
E--------------------------------------------------------------|

E--3--7----3--7----3--8----7--6----2--3----7--6----------7------------------|
B-----------------------------------------------------1---------------------|
G-------------------------------------------------3-------------------------|
D---------------------------------------------------------------------------|
A---------------------------------------------------------------------------|
E---------------------------------------------------------------------------|

E--3--7----3--7---3--10----9--8----5--8---7--6-------3---0------------------|
B---------------------------------------------------------------------------|
G------------------------------------------------3--------------------------|
D---------------------------------------------------------------------------|
A---------------------------------------------------------------------------|
E---------------------------------------------------------------------------|


this is at (1:21) of (2:08) but im too tired and must go bed, ill finish it soon :P Hope 
like the new bits ^^
            
Submit corrections

comments powered by Disqus
↑ Back to top | Misc Soundtrack Tabs for Harry Potter. Lyrics for acoustic guitar and electric guitar. 1 Tablatures and chords are parodies/interpretations of the original songs. You may use it for private study, scholarship, research or language learning purposes only