>
 >
Harry Potter And The Half Blood Prince - When Ginny Kissed Harry 1

Harry Potter And The Half Blood Prince - When Ginny Kissed Harry 1 Guitar Tabs

Misc Soundtrack - Harry Potter And The Half Blood Prince - When Ginny Kissed Harry 1 chords, tabs, tablatures, lyrics

Guitar lessons | Add/correct | Request | Top 50 tabs Artists:  A B C D E F G H I J K L M N O P Q R S T U V W X Y Z 0-9

Harry Potter And The Half Blood Prince - When Ginny Kissed Harry 1 Guitar Tabs – Misc Soundtrack

CD, Sheet music, Poster

Do you like Harry Potter And The Half Blood Prince - When Ginny Kissed Harry 1? Share with your friends now
TabsTabs v2
Harry Potter and The Half Blood Prince -
When Ginny Kissed Harry



Here is my complete version of this lovely song from the movie soundtrack.
I relistened it many times and hope it is now both complete and correct.


Let it smoothly ring, whenever you can! :)

e|-7-----7----5----5------3-2-0--3-2-0----------0-2-0-------0-2-3-2-0--3-2-0-|
B|---8-----8----7----7-----------------0-----0-3------3---1------------------|
G|-----7-----7----7----7-----------------------------------------------------|
D|---------------------------------------------------------------------------|
A|---------------------------------------------------------------------------|
E|---------------------------------------------------------------------------|

e|-3-2-0-7-------------------------------------------------------------------|
B|---------------------------------------------------------------------------|  PLAY THE
G|---------------------------------------------------------------------------| WHOLE PART x2
D|---------------------------------------------------------------------------|
A|---------------------------------------------------------------------------|
E|---------------------------------------------------------------------------|


then it goes on with...

e|---3------3-----3-----3------3-2-0--3-2-0----------------------------------|
B|-----5------5-----5-----5-----------------0--------------------------------|
G|-------2------2-----5-----5------------------------------------------------|
D|---------------------------------------------------------------------------|
A|---------------------------------------------------------------------------|
E|---------------------------------------------------------------------------|


e|---3------3-----3-----3------3-2-0--3-2-0-7--------------------------------|
B|-----5------5-----5-----5--------------------------------------------------|
G|-------2------2-----5-----5------------------------------------------------|
D|---------------------------------------------------------------------------|
A|---------------------------------------------------------------------------|
E|---------------------------------------------------------------------------|

e|----3------3-----3-----3------3-2-0--3-2-0---------------------------------|
B|------5------5-----5-----5-----------------0-------------------------------|
G|-(5)----2------2-----5-----5-----------------------------------------------|
D|---------------------------------------------------------------------------|
A|---------------------------------------------------------------------------|
E|---------------------------------------------------------------------------|

"Lower Break"
e|-----------------------------------------------------------------------------|
B|-----0h1-------0h1--0-----0---1---3------------------------------------------|
G|----------------------2------------------------------------------------------|
D|-----------------------------------------------------------------------------|
A|----2-----2---2--------------------------------------------------------------|
E|-0---------0-----------------------------------------------------------------|

Then REPEAT FROM THE BEGINN EXCEPT the "Lower Break"


After repeating it goes to the end with...


e|--3------3-----3-----3-----------------------------------------------------|
B|----5------5-----5-----5----5----------------------------------------------|
G|------2------2-----5-----5-------------------------------------------------|
D|---------------------------------------------------------------------------|
A|---------------------------------------------------------------------------|
E|---------------------------------------------------------------------------|

...and the very end (optional)

e|------------------------------------|
B|-----0---0---0---1---3--------------|
G|------------------------------------|
D|---2---2---2---2--------------------|
A|------------------------------------|
E|------------------------------------|


h = hammer on
() = optional/only 2nd Time

Notes to the original version:

The original version is recorded with 2 guitars.
There the "very end" is played by just the 2nd/Bass/Rhythm Guitar.
In my tab I put these notes an octave higher to fit better in a single guitar version.
The same story with the one "optional" note, for which I decided.

Moreover originally both guitars pause, while repeating the 4th Line of this Tab.
But if you play it without an String orchestra it makes no sense to pause as well ;)


Enough words are fallen, I hope you enjoy, criticize and rate! :]


Thanks to Desipio and uziriderush for tabbing they song before!





Comments


Popular Misc Soundtrack tabs & chords
2 Guys A Girl And A Pizza Place Theme Bass Tabs
Debbie Does Dallas Theme Bass Tabs
A Mighty Wind - Old Joes Place Chords
Anastasia - Once Upon A December Chords
Crazy Heart - Fallin And Flyin 2 Chords
Hairspray - Timeless To Me Chords
Grasswalk Theme Tabs
Jaws Main Theme Intro Tabs
Nightmare Before Christmas Intro Tabs
Star Wars Tabs


Song lyrics



↑ Back to top | Tablatures and chords are parodies/interpretations of the original songs. You may use it for private study, scholarship, research or language learning purposes only
© 2014 AZChords.com Contact us | Privacy policy | DMCA | Add/correct tabs | Request tabs | Top 50 tabs