» » »

Harry Potter And The Half Blood Prince - When Ginny Kissed Harry Tabs (ver.1)

Artists:  A B C D E F G H I J K L M N O P Q R S T U V W X Y Z # 

Harry Potter And The Half Blood Prince - When Ginny Kissed Harry Tabs (ver.1)

Misc Soundtrack
Rating:
0/5 (0 votes)

Hard to play? Try these video lessons and learn fast.
                -------------------------------------------------------------------------------
			  When Ginny Kissed Harry - From Harry Potter 
							and the Half Blood Prince
-------------------------------------------------------------------------------

Tuning: Standard

Plays during Ginny and Harry's first kiss in the sixth film.



e|-7-----7----5----5------3-2-0--3-2-0----------0-2-0-------0-2-3-2-0--3-2-0-|
B|---8-----8----7----7------------------------3-------3---1------------------|
G|-----9-----9----7----7---------------4----4--------------------------------|
D|---------------------------------------------------------------------------|
A|---------------------------------------------------------------------------|
E|---------------------------------------------------------------------------|

e|-3-2-0-7-------------------------------------------------------------------|
B|---------------------------------------------------------------------------| REPEAT
G|---------------------------------------------------------------------------|
D|---------------------------------------------------------------------------|
A|---------------------------------------------------------------------------|
E|---------------------------------------------------------------------------|

e|--3------3-----3-----3------3-2-0--3-2-0-----------------------------------|
B|----5------5-----5-----5---------------------------------------------------|
G|------5------5-----5-----5---------------4---------------------------------|
D|---------------------------------------------------------------------------|
A|---------------------------------------------------------------------------|
E|---------------------------------------------------------------------------|

e|--3------3-----3-----3------3-2-0--3-2-0-7---------------------------------|
B|----5------5-----5-----5---------------------------------------------------|
G|------5------5-----5-----5-------------------------------------------------|
D|---------------------------------------------------------------------------|
A|---------------------------------------------------------------------------|
E|---------------------------------------------------------------------------|

e|--3------3-----3-----3------3-2-0--3-2-0-----------------------------------|
B|----5------5-----5-----5---------------------------------------------------|
G|------5------5-----5-----5---------------4---------------------------------|
D|---------------------------------------------------------------------------|
A|---------------------------------------------------------------------------|
E|---------------------------------------------------------------------------|

e|---------------------------------------------------------------------------|
B|-----0h1-------0h1--0-----0---1---3----------------------------------------|
G|----------------------2----------------------------------------------------|
D|---------------------------------------------------------------------------|**REPEAT LINES
A|----2-----2---2------------------------------------------------------------|     1-5**
E|-0---------0---------------------------------------------------------------|

e|--3------3-----3-----3------0----------------------------------------------|
B|----5------5-----5-----5---------------------------------------------------|
G|------5------5-----5-----5-------------------------------------------------|
D|---------------------------------------------------------------------------|
A|---------------------------------------------------------------------------|
E|---------------------------------------------------------------------------|


| /  slide up
| \  slide down
| h  hammer-on
| p  pull-off
| ~  vibrato
| +  harmonic
| x  Mute note
===============================================================================
            
Hard to play? Try these video lessons and learn fast. | Correct




comments powered by Disqus
↑ Back to top | Tablatures and chords are parodies/interpretations of the original songs. You may use it for private study, scholarship, research or language learning purposes only