» » »

Misc Soundtrack, Harry Potter And The Half Blood Prince - Harry And Hermione Tabs (ver.1)

Artists:  A B C D E F G H I J K L M N O P Q R S T U V W X Y Z # 

Harry Potter And The Half Blood Prince - Harry And Hermione Tabs (ver.1)

Misc Soundtrack Tabs
 Rating:
4/5 (4 votes)
Harry Potter And The Half Blood Prince - Harry And Hermione lessons Tabs too difficult? Try these video lessons and learn fast
1
                (Theme)
------------------------------------------------------------------------------
    Harry Potter and the Half Blood Prince - Harry & Hermione
-------------------------------------------------------------------------------

Lenght: 02:53

This is my first TAB, please RATE!. I think, this is perfect. Enjoy!

[Verse 1] 0:28 - 00:45

e|---------7--------3---------------7--------3-------------------------------|
B|--8-7-5-----8-7-5---(5)----8-7-5-----8-7-5---------------------------------|
G|---------------------------------------------------------------------------|
D|---------------------------------------------------------------------------|
A|---------------------------------------------------------------------------|
E|---------------------------------------------------------------------------|

[Verse 2] 00:46 - 01:00

e|-15-14-12-19-15-14---15-14-12-19-15-14---15-14-12-19-15-14-8---------------|
B|---------------------------------------------------------------------------|
G|---------------------------------------------------------------------------|(x2)
D|---------------------------------------------------------------------------|
A|---------------------------------------------------------------------------|
E|---------------------------------------------------------------------------|

01:02 - 01:07
e|-8-7--8---|
B|----------|
G|----------|
D|----------|
A|----------|
E|----------|

[Verse 1] 01:09 - 01:24
e|---------7--------3--------------7--------3--------------------------------|
B|--8-7-5-----8-7-5---(5)---8-7-5-----8-7-5----7-5---------------------------|
G|---------------------------------------------------------------------------|
D|---------------------------------------------------------------------------|
A|---------------------------------------------------------------------------|
E|---------------------------------------------------------------------------|

(Slow down) 01:37 -01:49
e|-----------------19-------|
B|-5-8-12-13-17-19----------|
G|--------------------------|
D|--------------------------|
A|--------------------------|
E|--------------------------|

[Verse 1] 01:54 - 02:00

e|---------7--------3-|
B|--8-7-5-----8-7-5---|
G|--------------------|
D|--------------------|
A|--------------------|
E|--------------------|

[Verse 2] 02:01 - 02:16

e|-15-14-12-19-15-14---15-14-12-19-15-14---15-14-12-19-15-14-8---------------|
B|---------------------------------------------------------------------------|
G|---------------------------------------------------------------------------|(x2)
D|---------------------------------------------------------------------------|
A|---------------------------------------------------------------------------|
E|---------------------------------------------------------------------------|

[Verse 3] 02:18 - 02:32

e|------------12-------------------------12-----------------------12---------|
B|-13--12--10------13--12-----13--12--10----13-12------13--12--10----13-12-8-|
G|---------------------------------------------------------------------------|(x2)
D|---------------------------------------------------------------------------|
A|---------------------------------------------------------------------------|
E|---------------------------------------------------------------------------|

[End] 02:33 - 02:40

e|--12------14-12-----------------------------12------14-12------------------|
B|----13-12-------13----------------------------13-12-------13---------------|
G|---------------------------------------------------------------------------|
D|---------------------------------------------------------------------------|
A|---------------------------------------------------------------------------|
E|---------------------------------------------------------------------------|

The original verion is recorded with 2 guitars.
Thanks for use!
            
Submit corrections

comments powered by Disqus
↑ Back to top | Misc Soundtrack Tabs for Harry Potter And The Half Blood Prince - Harry And Hermione. Lyrics for acoustic guitar and electric guitar. 1 Tablatures and chords are parodies/interpretations of the original songs. You may use it for private study, scholarship, research or language learning purposes only