» » »

Misc Soundtrack, Harry Potter And The Deatlhy Hallows - Obliviate Tabs (ver.1)

Artists:  A B C D E F G H I J K L M N O P Q R S T U V W X Y Z # 

Harry Potter And The Deatlhy Hallows - Obliviate Tabs (ver.1)

Misc Soundtrack Tabs
 Rating:
4/5 (4 votes)
Harry Potter And The Deatlhy Hallows - Obliviate lessons Tabs too difficult? Try these video lessons and learn fast
                This is my first tab, so please tell me if I've gotten any wrong. There are some bits 
that need 2 players for, usually the melody part (unless you are a super amazing player 
and can somehow stretch your fingers really far) Thanks!


E|5---------------5---------------5---------------5-------------0-|
B|--- --------------------------------------------------------3---|
G|2-0-2-0-2-0-2-0-2-0-2-0-2-0-2-0-2-0-2-0-2-0-2-0-2-0-2-0-2-0-2-0-|
D|0-------0-------0-------0-------0-------0-------0-------0-------|
A|----------------------------------------------------------------|
E|----------------------------------------------------------------|


E|0-------1-------5---------------5-------------0-0-------6-|
B|--------------------------------------------3-------------|
G|2-0-2-0-2-0-2-0-2-0-2-0-2-0-2-0-2-0-2-0-2-0-2-0-3-2-3-2-3-|
D|0-------0-------0-------0-------0-------0-------0-------0-|
A|----------------------------------------------------------|
E|----------------------------------------------------------|


E|----------------------5---5---------0-0-------1---------|
B|----------------------------------3---------------------|
G|2-3-2-3-2-3-2-3-2-3-2-2-0-2-0-2-0-2-0-2-0-2-0-2-0-------|
D|------0-------0-------0-------0-------0-------0---3-2---|
A|------------------------------------------------------0-|
E|--------------------------------------------------------|


E|--0---7---8---10--8---7---0---5---------------3---------------|
B|----------------------------------------------------------3---|
G|--2---4---2-------0---4---0-----------2-----------4-0-4-0-4-0-|
D|2---2---2---2---0---0---0---0-----3-------3-----0-------------|
A|--------------------------------0---0---0---0-----------------|
E|--------------3---------------1---------------3---------------|


E|--------0-------------------0---0-------------------------------|
B|3---------------------------------------3-----------------------|
G|4-0-4-0-4-0-4-0-4-0-4-0-4-0-4-0-2-0-2-0-2-0-2-0-2-0-2-0-2-0-2-0-|
D|2-------2-------2-------2-------0-------0-------0-------0-------|
A|----------------------------------------------------------------|
E|----------------------------------------------------------------|


E|5---5---------0-0-------1-------------------1-3-3-------5-------|
B|------------3-------------------------------3-5-5-------6-------|
G|2-0-2-0-2-0-2-0-2-0-2-0-2-0-2-0-2-0-2-0-2-0-2-0-2-0-2-0-2-0-----|
D|0-------0-------0-------0-------0-------0-------0-------0---3-2-|
A|----------------------------------------------------------------|
E|----------------------------------------------------------------|


E|----0---7---8---10--8---7---0---5---------------3---------------|
B|----1---1---1-------0---0---0---------------------------0-------|
G|----2---2---2-------0---0---0-------2---2---2-------0-2---2-0---|
D|--2---2---2---2---0---0---0---0-----3---3---3-----0-----------0-|
A|0---------------------------------0---0---0---0-----------------|
E|----------------3---------------1---------------3---------------|


E|----8---11--13--15--11--10--8---8-------8---13------8---13-|
B|----1---4---1---8---4---3---1---1-------1---6-4-1---1---6--|
G|--0---0---0---0-----1---3---1---------0-2-0---------1------|
D|------------------1---1---1---1-----3-------3-----1---1----|
A|3---------------------------------3---------------------1--|
E|----------------4---------------1---------------4----------|


E|--11--15--11--13--15--------0-----0-3-5-----1---1-0---|
B|--4---8---4---6---8---8---0-----0---------1---1-----1-|
G|--3-------1-------3-----0-----0-----0---2-----2-------|
D|3---3---1---1---3---3-2---------------3---------------|
A|--------------1---------------------------------------|
E|------4-----------------------------------------------|


E|------0---------------1-------------------------|
B|0---0---3-0-0-1-1---1-----1-1-3-3---3---3---3---|
G|--0-----0---0-----2-----9---9---0-0-0-0-0-0-0-0-|
D|2-------9-------3---------------1---1---1---1---|
A|--------------------------------3---15--3---15--|
E|------------------------------------------------|


E|----------------5---------------5---5-----------5---5--------------|
B|3---3---3---3---3---------------3---3-----------3---3--------------|
G|1---1---1---1---2-0-2-0-2-0-2-0-2-0-2-0-2-0-2-0-2-0-2-0-2-0-2-0----|
D|1-1-1-1-1-1-1-1-0-------0-------0-------0-------0-------0-------00-|
A|----11------11-----------------------------------------------------|
E|16------16---------------------------------------------------------|
            
Submit corrections

comments powered by Disqus
↑ Back to top | Misc Soundtrack Tabs for Harry Potter And The Deatlhy Hallows - Obliviate. Lyrics for acoustic guitar and electric guitar. Tablatures and chords are parodies/interpretations of the original songs. You may use it for private study, scholarship, research or language learning purposes only