» » »

Grindhouse Tabs (ver.1)

Artists:  A B C D E F G H I J K L M N O P Q R S T U V W X Y Z # 

Grindhouse Tabs (ver.1)

Misc Soundtrack
Rating:
0/5 (0 votes)

Hard to play? Try these video lessons and learn fast.
                (Theme)
Intro and main Riff:

e|---------------------------------------------------------------------------|
B|---------------------------------------------------------------------------|
G|---------------------------------------------------------------------------|
D|---------------------------------------------------------------------------|
A|---------------------------------------------------------------------------|
E|---2--0-2-3-2-0-2----2--2-0-2-3-2-0---2--2-0-2-3-2-0-----------------------|


e|---------------------------------------------------------------------------|
B|---------------------------------------------------------------------------|
G|---------------------------------------------------------------------------|
D|---------------------------------------------------------------------------|
A|---------------------------------------------------------------------------|
E|-2--2-0-2-3-2-0--2-3-2-0--2-3-2-0------------------------------------------|



Guitar(0:26)

   Play softly
e|----6-6---6-6-x-6-6----6-6-x-6-6-------------------------------------------|
B|----7-7---7-7-x-7-7----7-7-x-7-7---7-7--7--7--7----------------------------|
G|----6-6---6-6-x-6-6----6-6-x-6-6---6-6--6--6--6----------------------------|
D|---------------------------------------------------------------------------|
A|---------------------------------------------------------------------------|
E|---------------------------------------------------------------------------|


e|--------------------------------------------------------------14v-----|
B|----------------------------7-7-7--7--7--7--7--7--x-x-----------------|
G|----------------------------6-6-6--6--6--6--6--6--x-x-----------------|
D|--4---4-4-2-4-5-4-2---4\2---4-4-4--4--4--4--4--4--x-x-----------------|
A|----------------------------------------------------------------------|
E|----------------------------------------------------------------------|


Guiatr (1:05):

e|---------------------------------------------------------------------------|
B|-----7v-5v-7v-5------7v---7-8-7-5-7v--7-7--7-7--7-7--7-7-5-7-8-7-5--7-7----|
G|---------------------------------------------------------------------------|
D|---------------------------------------------------------------------------|
A|---------------------------------------------------------------------------|
E|---------------------------------------------------------------------------|


Bridge(1:31)

e|---------------------------------------------------------------------------|
B|---------------------------------------------------------------------------|
G|---------------------------------------------------------------------------|
D|----7----------4-----------------------------------------------------------|
A|--7-5-7--9--4--2-4--7--2--4------------------------------------------------|
E|--5---5--7--2----2--5--0--2------------------------------------------------|


e|---------------------------------------------------------------------------|
B|---------------------------------------------------------------------------|
G|----7----------4-----------------------------------------------------------|
D|--7-7-7--9--4--4-4--7--2--4------------------------------------------------|
A|--7-5-7--9--4--2-4--7--2--4------------------------------------------------|
E|--5---5--7--2----2--5--0--2------------------------------------------------|


Solo(2:21)- keep playing

harmonize in octaves after some time
Repeat x3
e|---14b-12-14-15-14-12-------------------------------------------------------|
B|---------------------------------------------------------------------------|
G|---------------------------------------------------------------------------|
D|---------------------------------------------------------------------------|
A|---------------------------------------------------------------------------|
E|---------------------------------------------------------------------------|

e|---14-12-14-15-14-12---9---9/14--------------------------------------------|
B|---------------------------------------------------------------------------|
G|---------------------------------------------------------------------------|
D|---------------------------------------------------------------------------|
A|---------------------------------------------------------------------------|
E|---------------------------------------------------------------------------|



Solo Bridge(2:51)


e|---14-12-14-15-14-12---------18b--19b--21b---21-18-21-22-21-19-------------|
B|---------------------------------------------------------------------------|
G|---------------------------------------------------------------------------|
D|---------------------------------------------------------------------------|
A|---------------------------------------------------------------------------|
E|---------------------------------------------------------------------------|



Repeat X 3 
e|--21-19--21-22-21-19-------------------------------------------------------|
B|---------------------------------------------------------------------------|
G|---------------------------------------------------------------------------|
D|---------------------------------------------------------------------------|
A|---------------------------------------------------------------------------|
E|---------------------------------------------------------------------------|



Ending(2:58)

e|--21-18--21-22-21-19----21--21-19--19-18--18-19----14v--12--14-------------|
B|---------------------------------------------------------------------------|
G|---------------------------------------------------------------------------|
D|---------------------------------------------------------------------------|
A|---------------------------------------------------------------------------|
E|---------------------------------------------------------------------------|


e|--12--14--14----12--14-15-----15p14p12h14p12----12-14-15---15-14-12-12-12h14-14-----|
B|--------------------------------------------------------------------------------14--|
G|------------------------------------------------------------------------------------|
D|------------------------------------------------------------------------------------|
A|------------------------------------------------------------------------------------|
E|------------------------------------------------------------------------------------|
            
Hard to play? Try these video lessons and learn fast. | Correct




comments powered by Disqus
↑ Back to top | Tablatures and chords are parodies/interpretations of the original songs. You may use it for private study, scholarship, research or language learning purposes only