» » »

Green Rose - Jericho Rosales - Bumuhos Man Ang Ulan Tabs (ver.1)

Artists:  A B C D E F G H I J K L M N O P Q R S T U V W X Y Z # 

Green Rose - Jericho Rosales - Bumuhos Man Ang Ulan Tabs (ver.1)

Misc Soundtrack
Rating:
0/5 (0 votes)

Hard to play? Try these video lessons and learn fast.
                ********THIS IS MY FIRST TAB*********




*Tuning is in Standard*

INTRO:

e[----3--------------3----7--8--------------------/
B[-5--------3---5---------------5-----5-----3-----/
G[-5-----5------5--5----5-------5--5-----5--------/
D[------------------------------------------------/
A[------------------------------------------------/
E[------------------------------------------------/

\----3--------------3----7--8----15---------------/
\-5--------3---5----------------------------------/
\-5-----5------5--5----5--------------------------/
\-------------------------------------------------/
\-------------------------------------------------/
\-------------------------------------------------/

\------------ -1--------/
\-------1---------------/
\-2--------2-------2----/
\----1------------------/
\-----------------------/
\-1---------------------/

\---------------0-------/
\-------3---------3-----/
\-0---------0-------0---/
\----0----------------0-/
\-----------------------/
\-3---------------------/

\------------ -1--------/
\-------1---------------/
\-2--------2-------2----/
\----1------------------/
\-----------------------/
\-1---------------------/

\-3---]
\-3---]
\-----]
\-----]
\-2---]
\-3---]


C    G
Ooooh...
Am   F
Ooooh...


(C-G-Am-F-C-Am-F-G)
Magtatagpo rin tayo
Magkaiba man ang mundo
Magkalayo man ngayon,
Marami mang hadlang.
Magtatagpo din tayo
Alam kong ako'y lumisan
Hindi din kita iniwan
Kahit kailan


(C-G-Am-F-C-Am-F-G)
At hahagkan kita
Nang walang hanggan
Bumuhos man ang ulan
Nang walang hanggan
At yayakapin kita
Nang walang hanggan
Bumuhos man ang ulan
Na walang hanggan
Bumuhos man ang ulan


(F-G)*play chord A after the last word(man)
Hindi na, hindi na
Bumuhos man ang ulan
Hindi na, hindi na
Magpakailan man



(D-A-Bm-G-D-Bm-G-A) *play chord D on the last word(ulan)
At hahagkan kita
Nang walang hanggan
Bumuhos man ang ulan
Nang walang hanggan
At yayakapin kita
Nang walang hanggan
Bumuhos man ang ulan
Na walang hanggan
Bumuhos man ang ulan

OUTRO:

e[----5--------------5----9--10-------------------/
B[-7--------5---7---------------7-----7-----5-----/
G[-7-----7------7--7----7-------7--7-----7--------/
D[------------------------------------------------/
A[------------------------------------------------/
E[------------------------------------------------/

\----5---------------5----9--10----17-------------]
\-7---------5---7---------------------------------]
\-7------7------7--7----7-------------------------]
\-------------------------------------------------]
\-------------------------------------------------]
\-------------------------------------------------]

  
              *****I'M NOT REALLY SURE WITH THIS TAB*****
*****JUST PLAY WITH THOSE CHORDS IF YOU'RE NOT CONVINCED WITH THIS TAB******



            *****THANKS AND KEEP THE IRIE VIBE COMING.*****
                    *****I HOPE YOU LIKED IT.*****
            
Hard to play? Try these video lessons and learn fast. | Correct




comments powered by Disqus
↑ Back to top | Tablatures and chords are parodies/interpretations of the original songs. You may use it for private study, scholarship, research or language learning purposes only