>
 >
Grasswalk Theme

Grasswalk Theme Guitar Tabs

Misc Soundtrack - Grasswalk Theme chords, tabs, tablatures, lyrics

Guitar lessons | Add/correct | Request | Top 50 tabs Artists:  A B C D E F G H I J K L M N O P Q R S T U V W X Y Z 0-9

Grasswalk Theme Guitar Tabs – Misc Soundtrack

CD, Sheet music, Poster

Do you like Grasswalk Theme? Share with your friends now
Tabs
     E  E  E  E  E  E  Q       E  E  E  E  E  E  E  E     E  E  E  E  E  E  E  E   
E||-----------0--5----------|-----------0--3--2--1--0--|--5--4--0--3--2-----1--0--|
B||--------4----------------|--------4-----------0-----|--4-----------1--3--------|
G||-----------2-------------|-----------2--------------|--------------------------|
D||--------2----------------|--------2-----------------|--------------3-----------|
A||--0----------------------|--0-----------------------|--------3-----------3-----|
D||--------------------2----|--------------------2-----|--3-----------------------|


  Q    Q    E  E  E  E     E  E  E  E  E  E  Q       E  E  E  E  E  E  E  E   
------------------------|-----------0--5----------|-----------0--3--2--1--0--|
--1---------------------|--------4----------------|--------4-----------0-----|
------------------------|-----------2-------------|-----------2--------------|
--3---------------------|--------2----------------|--------2-----------------|
------------------------|--0----------------------|--0-----------------------|
--3---------3--4--5--6--|--------------------2----|--------------------2-----|


  E  E  E  E  E  E  E  E     Q    Q.     E  E  E     E  E  E  E  E  E  E  E   
--5--4--0--3--2-----1--0--|-----------------------|--------------------0--1--|
--4-----------1--3--------|--1--------------------|--3-----------------------|
--------------------------|-----------------------|--2-----------------------|
--------------3-----------|--3--------------------|--------------0-----------|
--------3-----------3-----|-----------------------|--------0-----------------|
--3-----------------------|--3-----------3--2--1--|--0-----------------0--0--|


  E  E  E  E  E  E  E  E     E  E  E  E  E  E  E  E     E  E  E  E  E  E  E  E   
--0-----------0-----------|--------------0-----------|--5-----------------------|
--0-----0-----0-----3-----|--1-----------0-----------|--5-----------------------|
--------------1-----4-----|--2-----------------------|--------------------------|
--------------2--0--------|--------2-----------2-----|--------0-----------0-----|
--------2-----------2-----|--3-----------2-----------|--------0-----------0-----|
--2-----------------------|--------------------------|--0-----------0-----------|


  E  E  E   E  E  E   Q       E  E  E  E  E  E   E  E     H        H           H        Q    Q     
--5--4--5------8-----------|--5--4--5--7--8-----10-----|--7-----------------|--L------------------|
-----------12--------------|---------------------------|--------------------|-----------0----5----|
---------------------------|---------------------------|--------------------|---------------------|
---------------------------|--------------0------------|--------------------|--6------------------|
---------------8-----------|-----------0---------------|-----------7--------|---------------------|
--3--------10--------10----|--0------------------0-----|--2-----------------|---------------------|


  Q    E  E  Q    E  E     Q    E  E  E  E  E  E     Q    E  E  Q    E  E     Q    Q    Q    Q     
------------------------|-------------------------|------------------------|----------------------|
----------0--1----1--0--|----------0--1--3--1--0--|----------0--1----1--0--|------------0---------|
--2---------------------|--2----------------------|--2----------2----------|--2-------------------|
--2----------2----------|--2----------2-----------|------------------------|------------0---------|
--0----------0----------|--0----------0-----------|-------3----------3-----|-------3---------5----|
-------2----------2-----|-------2-----------2-----|--3----------3----------|--3---------5---------|


  Q    E  E  Q    E  E     Q    E  E  E  E  E  E     Q    E  E  Q    E  E     Q    Q    Q    Q     
------------------------|-------------------------|------------------------|----------------------|
----------0--1----1--0--|----------0--1--3--1--0--|----------0--1----1--0--|----------------------|
--2---------------------|--2----------------------|--2----------2----------|--2---------0---------|
--2----------2----------|--2----------2-----------|------------------------|------------0---------|
--0----------0----------|--0----------0-----------|-------3----------3-----|-------3---------5----|
-------2----------2-----|-------2-----------2-----|--3----------3----------|--3---------5---------|


  E  E  E  E  E  E  E  E     Q    Q    E  E  E  E     E  E  E  E  E  E  E  E   
--5-----4-----3-----2-----|--0---------------------|--5-----4-----3-----2-----|
-----------5--------------|------------------------|-----------5--------------|
--2-----------2-----------|------------------------|--------------2-----------|
-----------2--------------|------------------------|-----------2--------------|
--0-----------------------|--0---------------------|--0-----------------------|
--------------------2-----|------------2--3--4--5--|--------------------2-----|


  Q    Q    E  E  E  E     Q    E  E  Q    E  E     E  E  E  E  Q    E  E   
--0---------------------|-------0----------0-----|--------0----------0-----|
------------------------|-------1----------1-----|--------1--1-------1-----|
------------------------|--2---------------------|--2--1--2----------------|
------------------------|-------------2----------|--------------2----------|
--0---------------------|--0---------------------|--0----------------------|
------------2--3--4--5--|-------------2----------|--------------2----------|


  E  E  E  E  Q    E  E     Q    Q    Q    Q       Q    E  E  Q    E  E     E  E  E  E  Q    E  E   
--------0----------0-----|----------------------|-------0----------3-----|-----------0--1----------|
--------1--0--1----1-----|--3----1----0---------|-------1-----0----3-----|--1--0--1----------3-----|
--2--1--2-----0----------|--2----2--------------|--2----------0----------|--0----------------------|
-------------------------|--0---------2---------|------------------------|--------2----------3-----|
--0-----------3----------|------------2---------|--0---------------------|--3----------------------|
-------------------------|----------------------|-------------5----------|--------------3----------|


  Q    E  E  Q    Q       Q    Q    E  E  E  E     Q    E  E  Q    E  E     E  E  E  E  Q    E  E   
--0--------------------|------------0-----------|-------0----------0-----|--------0----------0-----|
-------1-----0----1----|---------------3--1--0--|-------1----------1-----|--------1--1-------1-----|
-------0--2-------1----|--2---------------------|--2---------------------|--2--1--2----------------|
-----------------------|--2---------------------|-------------2----------|--------------2----------|
-------------2---------|--0---------------------|--0-------0-------------|--0--------0-------------|
--2--------------------|------------------------|-------------2-------2--|--------------2-------2--|


  E  E  E  E  Q    E  E     Q    E  E  Q    Q       Q    E  E  Q    E  E   
--------0----------0-----|-----------------------|-------0----------3-----|
--------1--0--1----1-----|--3----1-----0---------|-------1-----0----3-----|
--2--1--2-----0----------|--2----2---------------|--2----------0----------|
-------------------------|--0-------0--2---------|------------------------|
--0--------0--3-------3--|-------------2---------|--0-------0-------------|
-------------------------|------------------2----|-------------5-------5--|


  E  E  E  E  Q    E  E     Q    E  E  Q    E  E     Q    Q    E  E  E  E     Q    E  E  Q    Q     
-----------0--1----------|--0---------------------|------------0-----------|-------------0---------|
--1--0--1----------3-----|-------1-----0----1-----|---------------3--1--0--|----------1--0----6----|
--0----------------------|-------0--2-------1-----|--2---------------------|-------2----------4----|
--------2----------3-----|------------------------|--2---------------------|--2--------------------|
--3--------3-------------|-------------2-------2--|--0---------------------|--0--------------------|
--------------3-------3--|--2-------2-------------|-------2----------------|-------------2---------|


  E  E  E  E  Q    E  E     E  E  E  E  E  E  E  E     E  E  E  E  Q    Q     
--0-------------------0--|--5--4--------3--0--------|------------------------|
-----------1-------------|--5-----5-----1-----1-----|--3-----3--1--0---------|
--------------2----2-----|--------------------------|-----2------------------|
--7----------------------|--------------------2-----|--0-----------2---------|
--0-----0--3-------------|--0-----0--2--3-----------|--------3-----2---------|
-----6--------2----------|-----6--------------------|------------------------|


                                                   ^                        
  E  E  Q    Q    Q       E  E  E  E  Q    Q       E  E  E  E  E  E  E  E   
-----------------------|------------------------|--0-----------------------|
-----------------------|--------------1----3----|--0-----------------------|
--------2----0---------|--------2---------------|--2-----------------------|
--1--2-------0----3----|--2--------2--3---------|--2-----------------------|
--0--------------------|--3--2--3---------------|--------3--0--2-----3-----|
-------------5---------|------------------------|--------------------------|


  E  E  E  E  E  E  E  E     E  E  E  E  E  E  E  E     E  E  E  E  E  E  E  E   
--0-----------0-----------|--1-----------1-----------|--0-----------0-----------|
-----1-----------1--------|-----3-----------3--------|-----1-----------1--------|
--------2-----------2-----|--------2-----------2-----|--------2-----------2-----|
-----------2-----------2--|-----------3-----------3--|-----------2-----------2--|
--0-----------------------|--------------------------|--------------------------|
--------------------------|--------------------------|--------------------------|


  E  E  E  E  E  E  E  E     E  E  E  E  E  E  E  E     E  E  E  E  E  E  E  E   
--1-----------1-----------|--0-----------0-----------|--1-----------1-----------|
-----3-----------3--------|-----1-----------1--------|-----3-----------3--------|
--------2-----------2-----|--------2-----------2-----|--------2-----------2-----|
-----------3-----------3--|--------------------------|--------------------------|
--------------------------|--0--------0-----------0--|--2--------2-----------2--|
--------------------------|--------------------------|--------------------------|


  E  E  E  E  E  E  E  E     E  E  E  E  E  E  E  E     E  E  E  E  E  E  E  E   
--0-----------0-----------|--1-----------1-----------|--------------------------|
-----1-----------1--------|-----3-----------3--------|--------1--------1--------|
--------2-----------2-----|--------2-----------2-----|-----2--------2-----------|
--------------------------|--0--------0-----------0--|--2--------2--------2-----|
--3--------3-----------3--|--------------------------|--0-----------------L--0--|
--------------------------|--------------------------|--------------------------|


  E  E  E  E  E  E  E  E     E  E  E  E  E  E  E  E     E  E  E  E  E  E  E  E   
--------------------------|--------0--------0--------|--------5--------5--------|
--------3--------3--------|-----1--------1-----------|-----3--------3-----------|
-----2--------2--------5--|--2--------2--------2-----|--2--------2--------2-----|
--3--------3--------3-----|--------------------------|--0-----------------L--0--|
--2-----------------L--2--|--3-----------------L--3--|--------------------------|
--------------------------|--------------------------|--------------------------|


  E  E  E  E  E  E  E  E     E  E  E  E  E  E  E  E     E  E  E  E  E  E  E  E   
--------------------------|--------------------------|--------0-----------0-----|
--------1-----------1-----|--------3-----------3-----|-----1-----------1--------|
-----2-----------2--------|-----2-----------2-----5--|--2-----------2-----------|
--2-----------2-----------|--3-----------3-----------|--------------------------|
--0--------0-----------0--|--2--------2-----------2--|--3--------3-----------3--|
--------------------------|--------------------------|--------------------------|


  E  E  E  E  E  E  Q      
--------5-----------5----||
-----3-----------3-------||
--2-----------2----------||
--0--------0--------L----||
-------------------------||
-------------------------||




Duration Legend
---------------
H - half
Q - quarter
E - 8th
. - note dotted


Tablature Legend
----------------
L - tied note
^ - brush up





Comments


Popular Misc Soundtrack tabs & chords
Batman Theme Bass Tabs
Black Hawk Down - Minstrel Boy Chords
August Rush - Dueling Guitars Tabs
Braveheart Theme Intro 3 Tabs
Bridge Over River Kwai Whistle March Tabs
Enter The East - Metin 2 Tabs
Halloween Theme 1 Tabs
Jackass Theme 3 Tabs
Kill Bill Theme Tabs
13 The Musical - A Little More Homework Ukulele


Song lyrics



↑ Back to top | Tablatures and chords are parodies/interpretations of the original songs. You may use it for private study, scholarship, research or language learning purposes only
© 2014 AZChords.com Contact us | Privacy policy | DMCA | Add/correct tabs | Request tabs | Top 50 tabs