» » »

Godspell - Day By Day Bass tabs (ver.1)

Artists:  A B C D E F G H I J K L M N O P Q R S T U V W X Y Z # 

Godspell - Day By Day Bass tabs (ver.1)

Misc Soundtrack
Rating:
0/5 (0 votes)

Tabs too difficult? Try these video lessons and learn fast.
                Godspell
Day by Day
5 String, Standard


--------------------------|
-3-3-3-------3-3-3--------|
-------1-1-1-------1-1-1--|
--------------------------|
--------------------------|
Day by day...


--------------------|
--------------------|
-1-1-1-0-0-0--------|
-------------3-3-3--|
--------------------|
O dear lord...


--------------------------|
--------------------------|
-------0-0-0-------0-0-0--|
-0-0-0-------0-0-0--------|
--------------------------|
To see more clearly...


--------------------------|
--------------------------|
-7-7-7-------3-3-3-3-3-3--|
-------3-3-3--------------|
--------------------------|
To follow thee...
            
Tabs too difficult? Try these video lessons and learn fast.


comments powered by Disqus
↑ Back to top | Tablatures and chords are parodies/interpretations of the original songs. You may use it for private study, scholarship, research or language learning purposes only