» » »

Godfather Tabs (ver.6)

Artists:  A B C D E F G H I J K L M N O P Q R S T U V W X Y Z # 

Godfather Tabs (ver.6)

Misc Soundtrack
Rating:
0/5 (0 votes)

Hard to play? Try these video lessons and learn fast.
                (Theme)
----------------------------------------------------------------------------
                             Godfather- The Movie-Theme Tune
----------------------------------------------------------------------------

Please rate this tab as its my first one and by the sounds of it it pretty good. 
This is beautiful to play once uve got the hang of it.
Enjoy!

Tuning:eBGDAE

INTRO

e|---------------2--0--3--0---2--0----------------------------------------------------------------|
B|---5/8--8~-----0------------1----1--3--0--------------------------------------------------------|
G|-4------------------------------------------------0---------------------------------------------|
D|-----------------------------------------------2------------------------------------------------|
A|----------------------------0---------------2---------------------------------------------------|
E|---------------0-----------------------0--3-----------------------------------------------------|


e|---------------2--0--3--0--2--0------------------------------------------------0----------------|
B|---5/8--8~-----0-----------1-----0-------------------1--4/7----------------------0---0---------3|
G|-4----------------------------------3--2-----------2------------5-------5--8-------0---------0--|
D|----------------------------------------------2---------------7-------7--------------------2----|
A|---------------------------0-------------0--3---0-----------0-------0---------------------------|
E|---------------0--------------------------------------------------------------0---------0-------|


e|---------------------------------------------------------------------------|
B|----1--0--3--1--1--0--0------------0---------------------------------------|
G|---0-----------------------------0-----------------------------------------|  repeat
D|--2-------------1-------1--2---2-------------------------------------------|   X2
A|-2--------------------2------2---------------------------------------------|
E|---------------------------0-----------------------------------------------|


VERSE

e|--------------------2----0-----------------------------------------------------|
B|--5--5--4--3----3----------1--0-------0--0--2--0-----1------1----1-----0-----0-|
G|--------------2---2----2------------0---------------2-----2-----2---3------2---|
D|-----------0--------0-------------0----------------3----3-----3----------1-----|
A|--------------------------------2-----------------3--------------------2------2|
E|------------------------------3------------------------------------------------|



REPEAT INTRO AS OUTTRO(only once) & sturm Em at the very end.


| /  slide up
| \  slide down
| h  hammer-on
| p  pull-off
| ~  vibrato
| +  harmonic
| x  Mute note
===============================================================================
            
Hard to play? Try these video lessons and learn fast. | Correct




comments powered by Disqus
↑ Back to top | Tablatures and chords are parodies/interpretations of the original songs. You may use it for private study, scholarship, research or language learning purposes only