» » »

Misc Soundtrack, Godfather Bass tabs (ver.1)

Artists:  A B C D E F G H I J K L M N O P Q R S T U V W X Y Z # 

Godfather Bass tabs (ver.1)

Misc Soundtrack Tabs
Rating:
0/5 (0 votes)
Godfather lessons Tabs too difficult? Try these video lessons and learn fast
                (Theme)
-------------------------------------------------------------------------------
			     the godfather - misc soundtrack
-------------------------------------------------------------------------------


Tuning: standard

G|-----------------------------------------------------------------------------|
D|-15-14-15-16-15-15--------15-14-15-16-15-15----------15-14-15-18-15-15-14----|
A|-------------------15-----------------------14-------------------------------|
E|-----------------------------------------------------------------------------|

G|-12-15-12-14-12---------------------12-15-12-14-12-15-12---------------------|
D|12--------------13-15-12----------12----------------------12-11-10-----------|
A|-----------------------------------------------------------------------------|
E|-----------------------------------------------------------------------------|


i know its not perfect, its my 2nd attempt at tabbing
thanks for looking


| /  slide up
| \  slide down
| h  hammer-on
| p  pull-off
| ~  vibrato
| +  harmonic
| x  Mute note
===============================================================================
            

comments powered by Disqus
↑ Back to top | Misc Soundtrack Bass for Godfather. Lyrics for acoustic guitar and electric guitar. Tablatures and chords are parodies/interpretations of the original songs. You may use it for private study, scholarship, research or language learning purposes only