» » »

Misc Soundtrack, Godfather - Love Tabs (ver.1)

Artists:  A B C D E F G H I J K L M N O P Q R S T U V W X Y Z # 

Godfather - Love Tabs (ver.1)

Misc Soundtrack Tabs
Rating:
0/5 (0 votes)
Godfather - Love lessons Tabs too difficult? Try these video lessons and learn fast
                (Theme)
Hey this is my first tab hope you like it:D



        e   ---0-5-8-7-5-8-5-7-------|
        B   -------------------6-8-5-|
        G   -------------------------|
        D   -------------------------|
        A   -------------------------|
        E   -------------------------|



        e   ---0-5-8-7-5-8-5-7-------|
        B   -------------------5-4-3-|
        G   -------------------------|
        D   -------------------------|
        A   -------------------------|
        E   -------------------------|



        e   -------1-4-7---7---1-4-5---5------4-3-0-5-3-3-0-0-----|
        B   ---3-3-----------3--------------0---------------------|
        G   ------------------------------2-------------------0-1-|
        D   ------------------------------------------------------|
        A   ------------------------------------------------------|
        E   ------------------------------------------------------|



        e   ---5-5-4-3-7-5-1-0---0-0-3-0---------------|
        B   -----------------------------3---3-3-6-4-5-|
        G   -------------------------------------------|
        D   -------------------------------------------|
        A   -------------------------------------------|
        E   -------------------------------------------|



        e   ---0-5-8-7-5-8-5-7-------|
        B   -------------------6-8-5-|
        G   -------------------------|
        D   -------------------------|
        A   -------------------------|
        E   -------------------------|



        e   ---0-5-8-7-5-8-5-7-------|
        B   -------------------5-4-3-|
        G   -------------------------|
        D   -------------------------|
        A   -------------------------|
        E   -------------------------|



        e   -------1-4-7---7---1-4-5---5------4-3-0-5-3-3-0-0-4---5-|
        B   ---3-3-----------3--------------0---------------------5-|
        G   ------------------------------2-----------------------5-|
        D   ------------------------------------------------------5-|
        A   --------------------------------------------------------|
        E   --------------------------------------------------------|


Enjoy:D
            
Submit corrections

comments powered by Disqus
↑ Back to top | Misc Soundtrack Tabs for Godfather - Love. Lyrics for acoustic guitar and electric guitar. Tablatures and chords are parodies/interpretations of the original songs. You may use it for private study, scholarship, research or language learning purposes only