» » »

Misc Soundtrack, Godfather Tabs (ver.1)

Artists:  A B C D E F G H I J K L M N O P Q R S T U V W X Y Z # 

Godfather Tabs (ver.1)

Misc Soundtrack Tabs
Rating:
0/5 (0 votes)
Godfather lessons Tabs too difficult? Try these video lessons and learn fast
                THE GODFATHER

    This is a nice, small piece to play, the main theme from the movie.
Spaces between notes are absolutely meaningless!

e:--------------------|---------------|---------------------|---------------|
B:------1--0-----1----|-0-------------|-------1--0-----1----|-0-------------|
G:---2--------2-----2-|----2-----0----|----2--------2-----2-|----2----------|
D:2-------------------|-------3-----2-|-2-------------------|-------3--2--0-|
A:--------------------|---------------|---------------------|---------------|
E:--------------------|---------------|---------------------|---------------|

e:-------------|------------|---------------------|--------------|
B:-----------0-|------------|---------------------|--------------|
G:--------2----|-------1--2-|-------0--------0----|--------------|
D:--0--3-------|-0--3-------|----------3--2-----3-|-3--2---------|
A:-------------|------------|-0--3----------------|-------2--3--0|
E:-------------|------------|---------------------|--------------|

-- 
This signature is provided AS IS, with no warranty, either explicit or
implicit of any kind. You have a 15 second trial period. If you keep
looking it for any longer, you have to pay a license for it. Send check
            
Submit corrections

comments powered by Disqus
↑ Back to top | Misc Soundtrack Tabs for Godfather. Lyrics for acoustic guitar and electric guitar. Tablatures and chords are parodies/interpretations of the original songs. You may use it for private study, scholarship, research or language learning purposes only