» » »

Misc Soundtrack, Gknova6 - Damned Tabs (ver.1)

Artists:  A B C D E F G H I J K L M N O P Q R S T U V W X Y Z # 

Gknova6 - Damned Tabs (ver.1)

Misc Soundtrack Tabs
Rating:
0/5 (0 votes)
Hard to play? Try these video lessons and learn fast.
                (Intro)
I do not own this song I only "own" these versions of the song!
---------------------------------------------------------------
I have found a few different ways to play this song, and have tabbed them below. You are 
free to choose which one you like the most.
====
You can use what notes you want, it doesnt really matter(to me), but send me a msg if 
you find the notes that, somewhat, match the song exactly.

For an example I will start at the 7th fret.

++ method 1 ++
e|--7-------7------7---7-----7-----7----8-----8-----8---10-10--9-9---8----|:
B|-----7-7----7-7----7---7-7---7-7---7----7-7---7-7--7--------------------|:
G|------------------------------------------------------------------------|:
D|------------------------------------------------------------------------|:
A|------------------------------------------------------------------------|:
E|------------------------------------------------------------------------|:
====

++ method 2 ++
e|-----9------9-----9----9-----9-----9----10-----10-----10-10-|
B|-7-9----8-8---8-8---8----8-8---8-8---9-----9-9----9-9-------|
G|------------------------------------------------------------|
D|------------------------------------------------------------|
A|------------------------------------------------------------|
E|------------------------------------------------------------|

e|-12--12----11-11---10-|:
B|---10--10-------------|:
G|----------------------|:
D|----------------------|:
A|----------------------|:
E|----------------------|:

====

++method 3++
e|-----10-----10-----10---10-----10-----10---11--11--11---11-11----|
B|-6-7----7-7----7-7---7-----7-7----7-7---7----7---7---7-----------|
G|-----------------------------------------------------------------|
D|-----------------------------------------------------------------|
A|-----------------------------------------------------------------|
E|-----------------------------------------------------------------|

e|-12---12--11-11--10-|:
B|----7---------------|:
G|--------------------|:
D|--------------------|:
A|--------------------|:
E|--------------------|:

====
            

comments powered by Disqus
↑ Back to top | Misc Soundtrack Tabs for Gknova6 - Damned. Lyrics for acoustic guitar and electric guitar. Tablatures and chords are parodies/interpretations of the original songs. You may use it for private study, scholarship, research or language learning purposes only