» » »

Ghostbusters Bass tabs (ver.2)

Artists:  A B C D E F G H I J K L M N O P Q R S T U V W X Y Z # 

Ghostbusters Bass tabs (ver.2)

Misc Soundtrack
Rating:
0/5 (0 votes)

Hard to play? Try these video lessons and learn fast.
                (Theme)
GHOSTBUSTERS!

Name of Song: Ghostbusters 

This is only my second tab. 
It's pretty cool, but it is not the whole song. 
The song plays in a few different parts, 
and have tabbed the 2 most important. 
 - The verse and chorus. 

Verse, the same rhythm through the verse.  
G|-------------------------------------------------|
D|-----------7-7-----------------7-7---------------|
A|------679-------7-7-------679-------7-7----------|
E|-7-7-----------------7-7-------------------------|

Chorus
G|------------------|------------------|
D|------------------|------------------|
A|------------------|------------------|
E|7~--------5~------|4~----------0~----|

Thats all. 
I hope you enjoy. 


 
            
Hard to play? Try these video lessons and learn fast. | Correct




comments powered by Disqus
↑ Back to top | Tablatures and chords are parodies/interpretations of the original songs. You may use it for private study, scholarship, research or language learning purposes only