» » »

Misc Soundtrack, Gerudp Valley Tabs (ver.1)

Artists:  A B C D E F G H I J K L M N O P Q R S T U V W X Y Z # 

Gerudp Valley Tabs (ver.1)

Misc Soundtrack Tabs
 Rating:
4/5 (4 votes)
Gerudp Valley lessons Tabs too difficult? Try these video lessons and learn fast
1
                ok here is my version of gerudo valley 
i love this song hope u enjoy it

h=hammer on
p=pull off


Guitar 2 (Background)
|-----2-------2-------0-------1----------------------------------|
|-----2-------3-------0-------2----------------------------------|
|-----2-------2-------1-------1----------------------------------|
|-----4-------0-------0-------3----------------------------------|
|-----0-------0-------0-------0----------------------------------|
|-----0-------0-------0-------0----------------------------------|



Guitar 1 (Melody)
|----2-4-5---2-4-5----2-4-5---2-4-5----0-2-4--2-4-2-1------------|
|--2-------2--------3-------3--------0---------------------------|
|----------------------------------------------------------------|
|----------------------------------------------------------------|
|----------------------------------------------------------------|
|----------------------------------------------------------------|


|----2-4-5---2-4-5----2-4-5---2-4-5----0-2-4--5-7-5-4------------|
|--2-------2--------3-------3--------0---------------------------|
|----------------------------------------------------------------|
|----------------------------------------------------------------|
|----------------------------------------------------------------|
|----------------------------------------------------------------|


|----5-4-2-----0h2p0------4-2-0----------------5-4-2-----0h2p0---|
|--2-------2-5-------3--0-------3-2-3h5p3-2--2-------2-5-------3-|
|----------------------------------------------------------------|
|----------------------------------------------------------------|
|----------------------------------------------------------------|
|----------------------------------------------------------------|


|---------------5-4-5-4--------------4-2-4-0---------------------|
|------7-5-3-2----------2-5-5h7p5------------3-2-3h5p3-2---------|
|--2-4----------------------------7------------------------------|
|----------------------------------------------------------------|
|----------------------------------------------------------------|
|----------------------------------------------------------------|


|----------------------------------------------------------------|
|--------2-------2--------3-------3------7-5-3-2-----------------|
|----1-2-----1-2------1-2-----1-2----2-4-------------------------|
|--4-------4--------4-------4------------------------------------|
|----------------------------------------------------------------|
|----------------------------------------------------------------|


|--5-4-5---4-5-7-5-4-5-4-5--4-2-4---2-4-5-4-2-4-2-1--------------|
|--------7------------------------5------------------------------|
|----------------------------------------------------------------|
|----------------------------------------------------------------|
|----------------------------------------------------------------|
|----------------------------------------------------------------|


|--5-4-5---4-5-7-5-4-5-4-5-------------------9-10-12-9-----------|
|--------7------------------12-10-12-9-10-12---------------------|
|----------------------------------------------------------------|
|----------------------------------------------------------------|
|----------------------------------------------------------------|
|----------------------------------------------------------------|


|----------------------------------------------------------------|
|-----------------------------------------------------3h5p3-2----|
|----2-1-2---2-1-2----2-1-2---2-1-2----4-3-4---4-3-4-------------|
|--4-------4--------0-------0--------2-------2-------------------|
|----------------------------------------------------------------|
|----------------------------------------------------------------|


|----------------------------------------------------------------|
|-----------------------------------------------------3h5p3-2----|
|----2-1-2---2-1-2----2-1-2---2-1-2----4-3-4---4-3-4-------------|
|--4-------4--------0-------0--------2-------2-------------------|
|----------------------------------------------------------------|
|----------------------------------------------------------------|


ok thats all enjoy
            
Submit corrections

comments powered by Disqus
↑ Back to top | Misc Soundtrack Tabs for Gerudp Valley. Lyrics for acoustic guitar and electric guitar. 1 Tablatures and chords are parodies/interpretations of the original songs. You may use it for private study, scholarship, research or language learning purposes only