>
 >
Gabrielle Theme

Gabrielle Theme Guitar Tabs

Misc Soundtrack - Gabrielle Theme chords, tabs, tablatures, lyrics

Guitar lessons | Add/correct | Request | Top 50 tabs Artists:  A B C D E F G H I J K L M N O P Q R S T U V W X Y Z 0-9

Gabrielle Theme Guitar Tabs – Misc Soundtrack

CD, Sheet music, Poster

Do you like Gabrielle Theme? Share with your friends now
Tabs
-------------------------------------------------------------------------------
                             GABRIELLE THEME - Airwolf Soundtrack
-------------------------------------------------------------------------------

Tuning: Standard


Additionally, I have tabbed an alternative fingering as to what he's playing in

the video.


  (0:04)                          (0:10)                      (0:16)
e------(10)--17--17--17s19-15~--|-------------------17-14~--|------------------(15-15)-17---17-17--19-19-----------------|
B-------15----------------------|--17---19---20--20---------|--15---17---19--19-20-20---------------------15-17~---s-10--|
G--14---------------------------|---------------------------|------------------------------------------------------------|
D-------------------------------|---------------------------|------------------------------------------------------------|
A-------------------------------|---------------------------|------------------------------------------------------------|
E-------------------------------|---------------------------|------------------------------------------------------------|


  (0:28)                          (0:34)                     (0:39)
e------------17--17--17s19-15~--|-------------------17-14~--|------------------(15-15)-17---17-17--19-19-----------------|
B-------17----------------------|--17---19---20--20---------|--15---17---19--19-20-20---------------------15-17~---s-10--|
G--14---------------------------|---------------------------|------------------------------------------------------------|
D-------------------------------|---------------------------|------------------------------------------------------------|
A-------------------------------|---------------------------|------------------------------------------------------------|
E-------------------------------|---------------------------|------------------------------------------------------------|


  (0:53)
e---------------------------------------------------------------------------------------------------------------------|
B--15-h-17-17~---17-17-b-19-r-17p15~---15h19pc17---17-17-b-19-r-17p15~---12-12b13-------------------------------------|
G----------------------------------------------------------------------------------14p12h14~~--12p11h12~---11p10h11~--|
D---------------------------------------------------------------------------------------------------------------------|
A---------------------------------------------------------------------------------------------------------------------|
E---------------------------------------------------------------------------------------------------------------------|


e-------------------------------------------------------------------------------------------------------|
B--15--17-17~---17-b-19-s-15~---17--19---15h19r17--15--19~-s-15---12-12b-12r10~-------------------------|
G--------------------------------------------------------------------------------12p11h12~---11p10h11~--|
D-------------------------------------------------------------------------------------------------------|
A-------------------------------------------------------------------------------------------------------|
E-------------------------------------------------------------------------------------------------------|


  (1:16)              (1:21)                      (1:26)                      (1:33)
             (1:35)
e--15s-17---19-15~--|--15--17--19--19~--21-17~--|--17--19--21--21~--22-19~--|--17--19--22-22-19-22~--|--19-19s17s15s14--14-12-14-----------||
B-------------------|---------------------------|---------------------------|------------------------|----------------------------15---15--||
G-------------------|---------------------------|---------------------------|------------------------|-------------------------------------||
D-------------------|---------------------------|---------------------------|------------------------|-------------------------------------||
A-------------------|---------------------------|---------------------------|------------------------|-------------------------------------||
E-------------------|---------------------------|---------------------------|------------------------|-------------------------------------||





Comments


Popular Misc Soundtrack tabs & chords
Exorcist Theme Bass Tabs
Alladin Whole New World Tabs
Beavis And Butt - Theme Tabs
Cowboy Bebop - Memory Tabs
Deliverance Theme 1 Tabs
Dragonheart Tabs
Inspector Gadget Theme 5 Tabs
King Of The Hill Theme Tabs
Space Jam Tabs
Unforgiven Tabs


Song lyrics



↑ Back to top | Tablatures and chords are parodies/interpretations of the original songs. You may use it for private study, scholarship, research or language learning purposes only
© 2014 AZChords.com Contact us | Privacy policy | DMCA | Add/correct tabs | Request tabs | Top 50 tabs