» » »

Misc Soundtrack, Friends Tabs (ver.3)

Artists:  A B C D E F G H I J K L M N O P Q R S T U V W X Y Z # 

Friends Tabs (ver.3)

Misc Soundtrack Tabs
 Rating:
4/5 (4 votes)
Friends lessons Tabs too difficult? Try these video lessons and learn fast
1
                (Theme)
----------------------------------------------------------------------------
                             Friends Theme Song - (The Remembrandts)
----------------------------------------------------------------------------


This is my first tab, so I hope you like it as it's from my favourite TV show of 
all time- Friends!

Tuning: Standard (EADGBe)

Chords used...

     E A D G B e
A|   X 0 3 3 3 0
G|   3 2 0 0 3 3
C#m| 4 4 6 6 5 4
Bm|  2 2 4 4 3 2
D|   X X 0 2 3 2
E|   0 2 2 1 0 0

Intro- x2
e|-------------------------------------------------|
B|-------------------------------------------------|
G|---2/6--6--4--2--0--0--2--4--2-------------------|
D|-------------------------------------------------|
A|-------------------------------------------------|
E|-------------------------------------------------|

Verse
A                                          G
So no one told you life was gonna be this way
A                                                      C#m
Your job's a joke you're broke your love life's D.O.A.
G               Bm               A
It's like you're always stuck in second gear
        G               D                     E
When it hasn't been your day, your week, your month, or even your year


Chorus
   A         D           E
But, I'll be there for you (When the rain starts to pour)

A       D           E
I'll be there for you (Like I've been there before)

A       D           E                             G
I'll be there for you ('Cause you're there for me too)


e|--------------------------------0---|
B|-----------------3--2--0--0-----3---|
G|---2/6--6--4--2--------------2--3---|
D|--------------------------------3---|
A|--------------------------------0---|
E|------------------------------------|
            
Submit corrections

comments powered by Disqus
↑ Back to top | Misc Soundtrack Tabs for Friends. Lyrics for acoustic guitar and electric guitar. 1 Tablatures and chords are parodies/interpretations of the original songs. You may use it for private study, scholarship, research or language learning purposes only