>
 >
Friends Theme 1

Friends Theme 1 Guitar Tabs

Misc Soundtrack - Friends Theme 1 chords, tabs, tablatures, lyrics

Guitar lessons | Add/correct | Request | Top 50 tabs Artists:  A B C D E F G H I J K L M N O P Q R S T U V W X Y Z 0-9

Friends Theme 1 Guitar Tabs – Misc Soundtrack

CD, Sheet music, Poster

Do you like Friends Theme 1? Share with your friends now
ChordsTabsTabs v2Tabs v3Ukulele
hey. this took me a dogs age to write! but i did it and its correct! i decide to go with
it n do the whole song! lol enjoy!

intro:

e|----------------------------------|
B|----------------------------------|
G|-----5b6--5b6p4--2--0--0--2h4--2--|
D|----------------------------------|
A|--0-------------------------------|
E|----------------------------------|


 Verse 1:
----------

 "So no one told you life was gonna be this way"
   A				       	  G
 "Your job's a joke, you're broke, your love life's D.O.A."
  A						     C#m
 "It's like you're always stuck in second gear"
   G	            Bm		 A
 "When it hasn't been your day, your week, your month, or even your year but"

 Chorus 1:
-----------

 "I'll be there for you -When the rain starts to pour"
   A       D	    E
 "I'll be there for you -Like I've been there before"
  A       D	    E
 "I'll be there for you -'Cause you're there for me too"
  A       D	    E				  G

 At the end of the first two lines a second guitar plays:
e|--0--0-0-0-0-0-0-0-0-0-0----------|
B|-------------------------3--0-----|
G|-------------------------------2--|
D|----------------------------------|
A|----------------------------------|
E|----------------------------------|

and at the end of the third line (when the first guitar
plays the G chord) the second guitar plays:
e|------------------------|
B|--0--0---0--1--0-----0--|
G|-------2----------2-----|
D|------------------------|
A|------------------------|
E|------------------------|

 Verse 2: 
----------
(same as Verse 1)

 "You're still in bed at ten and work began at eight"
   A    					 G
 "You burned your breakfast so far, things are going great"
   A						      C#m
 "Your mother warned you there'd be days like these"
   G	            Bm		 A
 "But she didn't tell you when the world has brought you down to your knees that"
	G		 D		      E


 Chorus 2:
-----------
(same as Chorus 1)
 "I'll be there for you -When the rain starts to pour"
   A       D	    E
 "I'll be there for you -Like I've been there before"
  A       D	    E
 "I'll be there for you -'Cause you're there for me toooooo"
  A       D	    E				  G      A

 Bridge:
---------

 "No one could ever know me"
   D
 "No one could ever see me"
   D
 "Sometime the only one who knows what its like to be me"
  F#m                         F#m
 "Someone to face the day with, make it through all the mess with"
  Bm			        Bm7
 "Someone I'll always laugh with, even under the worst I'm best with you"
  G	       D                  E	         D	   E	    F#m

With the and of the Bridge (actually, when he sings "...you") comes the "solo":

 Solo:
-------
(The first guitar plays the chords, the second the instrumental)

    F#m	      Bm 	Esus  E	       	       A     D    E
e|--------------------------------------------------------------------|
B|--2-2-2-2-2-2-2-2-2-2--0-0---0--0-----0-----0h2-------2--0--0-------|
G|-----------------------------------------2---------------------2--1-|
D|--------------------------------------------------2h4---------------|
A|--------------------------------------------------------------------|
E|--------------------------------------------------------------------|

	        F#m           Bm        Esus      E		  A
e|--------------------------------------------------------------------|
B|---------------------------------------------------------------0----|
G|-----------------------------------------------2-2-2--1-1-1--2---2--|
D|--4--2--------------------------------------------------------------|
A|--------4--2--4-4-4-4-4-4-4-4-------0h4--2--2-----------------------|
E|------------------------------2-2-----------------------------------|

        D       E
e|--0--------------------2--5-------|
B|--------3--3--0--2--3-------------|
G|-----2----------------------------|
D|----------------------------------|
A|----------------------------------|
E|----------------------------------|

 Fill 1:
---------

 "It's like you're always stuck in second gear
   G	            Bm		 A
 "When it hasn't been your day, your week, your month, or even your yeeeeeeeeeear but"
	G		 D		      E                    


 Chorus 3:
-----------
(this time the second guitar doesn't play anything)

 "I'll be there for you -When the rain starts to pour"
   A       D	    E
 "I'll be there for you -Like I've been there before"
  A       D	    E
 "I'll be there for you -'Cause you're there for me too"
  A       D	    E				  G

 Chorus 4:
-----------
In the last chorus the second guitar plays over "I'll be
there for you":
e|--------------------|
B|--------------------|
G|--------------------|
D|--------------------|
A|--4--------0h4--2---|
E|-----2--2-----------|

 "I'll be there for you"
   A       D	    E
 "I'll be there for you"
  A       D	    E
 "I'll be there for you -'Cause you're there for me too"
  A       D	    E				  G      A


THE END


 Chords used:
--------------
A:    x02220
Bm:   224432
Bm7:  224232
C#m:  446654
D:    xx0232
E:    022100
Esus: 022200
F#m:  244222
G:    320003


 Song order:
-------------
Intro(4x)
Verse 1
Chorus 1
Verse 2
Chorus 2
Bridge
Solo part
Fill 1
Chorus 3
Chorus 4


                  paul [x]





Comments


Popular Misc Soundtrack tabs & chords
Star Wars Darth Vader Tune 1 Bass Tabs
August Rush - Elgarsomething Inside Chords
Burning Bridges - Kellys Heroes Theme Chords
Full Metal Panic - Confidence Chords
Jolly Sailor Bold Chords
Baby Cool Your Jets Tabs
Buffy The Vampire Slayer Theme 3 Tabs
Hedwig Origin Of Love Tabs
13 The Musical - A Little More Homework Ukulele
A Clockwork Orange - Title Ukulele


Song lyrics



↑ Back to top | Tablatures and chords are parodies/interpretations of the original songs. You may use it for private study, scholarship, research or language learning purposes only
© 2014 AZChords.com Contact us | Privacy policy | DMCA | Add/correct tabs | Request tabs | Top 50 tabs