» » »

Misc Soundtrack, Flintstones Tabs (ver.1)

Artists:  A B C D E F G H I J K L M N O P Q R S T U V W X Y Z # 

Flintstones Tabs (ver.1)

Misc Soundtrack Tabs
Rating:
0/5 (0 votes)
Flintstones lessons Tabs too difficult? Try these video lessons and learn fast
                (Theme)
OK All... this is in standard tuning and it played in C major...
it could be played in another key tho... ok... here it is...

|-----------------8----------------------------------------------------|
|--8-------------------10---8------------8-------------8---------------|
|-------------------------------------------10-9-9-10-------7-9--------|
|--------10-----------------------10---------------------10------------|
|----------------------------------------------------------------------|
|----------------------------------------------------------------------|

|-----------------8----------------------------------------------------|
|--8-------------------------------------8-------------8----7----------|
|----------------------10---8--------------10-9-9-10-----10---10-------|
|--------10-----------------------10-----------------------------------|
|----------------------------------------------------------------------|
|----------------------------------------------------------------------|

|--7----------8-7-7--------7-----------------7-------------------------|
|-------------------10-10----10-------10-------10-10-8-8-10-8----------|
|--------9--------------------------------7----------------------------|
|----------------------------------------------------------------------|
|----------------------------------------------------------------------|
|----------------------------------------------------------------------|

|--8-------------8-----------------------------------------------------|
|--------------------10---8--------------8-------------8---------------|
|--------------------------------------------10-9-9-10------7----------|
|--------10-----------------------10---------------------10------------|
|----------------------------------------------------------------------|
|----------------------------------------------------------------------|

|--------------------------7--8--10--8---------------------------------|
|-------8-----------8--10----------------------------------------------|
|--9-10------7---------------------------------------------------------|
|---------10-----------------------------------------------------------|
|----------------------------------------------------------------------|
|----------------------------------------------------------------------|

OR U CAN PLAY THIS... I FIND IT EASIER BUT HEY... LOL

|--3-------8--5--3-------3--1--0-0-1-3--------0--|
|-----1-------------1-------------------1--3-----|
|------------------------------------------------|
|------------------------------------------------|
|------------------------------------------------|
|------------------------------------------------|

|--3-------8--5--3-------3--1--0-0-1-3-----------|
|-----1-------------1-------------------1--3--1--|
|------------------------------------------------|
|------------------------------------------------|
|------------------------------------------------|
|------------------------------------------------|

|--7-------8--7-7-5-5-7-5----5-------7--5-5-3-3-5-3--|
|-----5-------------------------3--------------------|
|----------------------------------------------------|
|----------------------------------------------------|
|----------------------------------------------------|
|----------------------------------------------------|

|--3-------8--5--3-------3--1--0-0-1-3--------0-1-3--------3-5-7-8--10--8--|
|-----1-------------1------------------1-3----------1-3--------------------|
|--------------------------------------------------------------------------|
|--------------------------------------------------------------------------|
|--------------------------------------------------------------------------|
|--------------------------------------------------------------------------|
            

comments powered by Disqus
↑ Back to top | Misc Soundtrack Tabs for Flintstones. Lyrics for acoustic guitar and electric guitar. Tablatures and chords are parodies/interpretations of the original songs. You may use it for private study, scholarship, research or language learning purposes only