>
 >
Fear And Loathing In Las Vegas - Stray In Chaos

Fear And Loathing In Las Vegas - Stray In Chaos Guitar Tabs

Misc Soundtrack - Fear And Loathing In Las Vegas - Stray In Chaos chords, tabs, tablatures, lyrics

Guitar lessons | Add/correct | Request | Top 50 tabs Artists:  A B C D E F G H I J K L M N O P Q R S T U V W X Y Z 0-9

Fear And Loathing In Las Vegas - Stray In Chaos Guitar Tabs – Misc Soundtrack

CD, Sheet music, Poster

Do you like Fear And Loathing In Las Vegas - Stray In Chaos? Share with your friends now
Tabs

Stray In Chaos - Fear And Loathing In Las Vegas

This is a great song by a great japanese band


Tuning: C G C F A D (Drop C)


Intro

          x16                                             x13
D|------------------------------------------------------------------------------------------|
A|--------------------------------------------------------6---------------------------------|
F|--------7-----------------------------------------------7---------------------------------|
C|------------------------------------------------------------------------------------------|
G|--------5-----------------------------------------------5---------------------------------|
C|------------------------------------------------------------------------------------------|

Main Riff

D|------------------------------------------------------------------------------------------|
A|------------------------------------------------------------------------------------------|
F|------------------------------------------------------------------------------------------|
C|----0-----------------7p0--3p0--2p0-----------3--------2-----3---------0--------2-----3---|x2
G|----0-------3p0--2p0-----------------3p0---1-----1--1-----1---------3-----3--3-----3------|
C|-0--0----0--------------------------------------------------------------------------------| 
   .       .                                 .     .  .     .         .     .  .     .

Verse (we've walking miles and miles...)

D|------------------------------------------------------------------------------------------|
A|------------------------------------------------------------------------------------------|
F|------------------------------------------------------------------------------------------|
C|-7---7-7-7-7-7-7-7-7-7-7-7-7-----5---5-5-5-5-5-5-5-5-5-5-5-5-5-5--------------------------|
G|-5---5-5-5-5-5-5-5-5-5-5-5-5--5--3---3-3-3-3-3-3-3-3-3-3-3-3-3-3--------------------------|
C|------------------------------------------------------------------------------------------|
 PM    . . . . . . . . . . .    .      . . . . . . . . . . . . . .


D|------------------------------------------------------------------------------------------|
A|-----------------------------------------10-^-10------------------------------------------|
D|-----------------------------------------12-b-12----12b12p10-12----10---------------------|
C|-3---3-3-3-3-3-3-3-3-3-3-3-3-------------------------------------------12--10--12--12-----|
G|-1---1-1-1-1-1-1-1-1-1-1-1-1--------------------------------------------------------------|
C|------------------------------------------------------------------------------------------|
       . . . . . . . . . . . 


D|------------------------------------------------------------------------------------------|
A|------------------------------------------------------------------------------------------|
F|------------------------------------------------------------------------------------------|
C|------------------3-p-0-----------------------3-p-0---------------------------------------|x2
G|--5---5----3-h-5----------3----5---5---3-h-5----------------------------------------------|
C|------------------------------------------------------------------------------------------|



D|------------------------------------------------------------------------------------------|
A|------------------------------------------------------------------------------------------|
F|-------------------------------------------------------------------2-----2----------------|
C|--3-/-7--7---5---3--5--3--2---3--2--0------0--2--3--2--3--5--3--5-----5-----g/5--3--2-3-2-|
G|----------------------------------------3-------------------------------------------------|
C|------------------------------------------------------------------------------------------|



D|------------------------------------------------------------------------------------------|
A|------------------------------------------------------------------------------------------|
F|------------------------------------------------------------------------------------------|
C|-0----0-0-0--------0-0-0-0-0-0---0----0-0-0---------7p0----3p0---2p0---3------------------|
G|-0----0-0-0--------0-0-0-0-0-0---0----0-0-0-----------------------------------------------|
C|-0----0-0-0--------0-0-0-0-0-0---0----0-0-0-----------------------------------------------|
   .    . . .        . . . . . .   .    . . .  


D|------------------------------------------------------------------------------------------|
A|------------------------------------------------------------------------------------------|
F|------------------------------------------------------------------------------------------|
C|-0----0-0-0--------0-0-0-0-0-0---3---3-3-3-3-3-3----2---2-2-2-2-2-2-----------------------|
G|-0----0-0-0--------0-0-0-0-0-0---1---1-1-1-1-1-1----3---3-3-3-3-3-3-----------------------|
C|-0----0-0-0--------0-0-0-0-0-0------------------------------------------------------------|
   .    . . .        . . . . . .       . . . . . .        . . . . . .

Main Riff

D|------------------------------------------------------------------------------------------|
A|------------------------------------------------------------------------------------------|
F|------------------------------------------------------------------------------------------|
C|----0-----------------7p0--3p0--2p0-----------3--------2-----3---------0--------2-----3---|x2
G|----0-------3p0--2p0-----------------3p0---1-----1--1-----1---------3-----3--3-----3------|
C|-0--0----0--------------------------------------------------------------------------------| 
   .       .                                 .     .  .     .         .     .  .     .

Pre-Verse

D|------------------------------------------------------------------------------------------|
A|------------------------------------------------------------------------------------------|
F|------------------------------------------------------------------------------------------|
C|-0----------------------------0-0-0---0-----0---------------------------------------------|
G|-0----------------------------0-0-0---0-----0---------------------------------------------|
C|-0----------------------------0-0-0---0-----0---------------------------------------------|
                                . . .   .


|------------------------------------------------------------------------------------------|
|------------------------------------------------------------------------------------------|
|------------------------------------------------------------------------------------------|
|---3--------7p0-2-----------2h3------2h3--------3-------7p0-2-----------2h3-------2-------|
|-5----5-5----------3----1-1------3-3----------5---5-5----------3----1-1------3-3--3-------|
|------------------------------------------------------------------------------------------|
  .    . .               . .      . .          .   . .               . .      . .


|------------------------------------------------------------------------------------------|
|------------------------------------------------------------------------------------------|
|------------------------------------------------------------------------------------------|
|---3--------7p0-2-----------2h3------2h3--------3-------7p0-2-----------2h3--2------------|
|-5----5-5----------3----1-1------3-3----------5---5-5----------3----1-1------3------------|
|------------------------------------------------------------------------------------------|
  .    . .               . .      . .          .   . .               . .


Verse (Wake up! Wake up!...)

                                                x3                                        
|--------------------------------------------------|----------------------------------------|
|--------------------------------------------------|----------------------------------------|
|-------------------------3--3--3--3--5--5--5--5---|----------------------------------------|
|-0--0--0--0--3--3--3--3--3--3--3--3--5--5--5--5---|-----0---0-0-0-0-0-0---2---2-2-2-2-2-2--|x2
|-0--0--0--0--3--3--3--3--1--1--1--1--3--3--3--3---|-----1---1-1-1-1-1-1---3---3-3-3-3-3-3--|
|-0--0--0--0--3--3--3--3---------------------------|----------------------------------------| 
                                                            . . . . . .       . . . . . .
(Don't Let it stop...)

|------------------------------------------------------------------------------------------|
|------------------------------------------------------------------------------------------|
|-3----3-3----3-3-3----5----5-5----5-5-5---------------------------------------------------|
|-3----3-3----3-3-3----5----5-5----5-5-5----0----0-0----0-0-0----3----3-3----3-3-3---------|
|-1----1-1----1-1-1----3----3-3----3-3-3----0----0-0----0-0-0----3----3-3----3-3-3---------|
|-------------------------------------------0----0-0----0-0-0----3----3-3----3-3-3---------|



|------------------------------------------------------------------------------------------|
|------------------------------------------------------------------------------------------|
|-3----3-3----3-3-3----5----5-5----5-5-5---------------------------------------------------|
|-3----3-3----3-3-3----5----5-5----5-5-5----0----0-0----0-0-0-0----0-0----0-0-0------------|
|-1----1-1----1-1-1----3----3-3----3-3-3----0----0-0----0-0-0-0----0-0----0-0-0------------|
|-------------------------------------------0----0-0----0-0-0-0----0-0----0-0-0------------|



|------------------------------------------------------------------------------------------|
|------------------------------------------------------------------------------------------|
|-3----3-3----3-3-3----5----5-5----5-5-5---------------------------------------------------|
|-3----3-3----3-3-3----5----5-5----5-5-5----0----0-0----0-0-0----3----3-3----3-3-3---------|
|-1----1-1----1-1-1----3----3-3----3-3-3----0----0-0----0-0-0----3----3-3----3-3-3---------|
|-------------------------------------------0----0-0----0-0-0----3----3-3----3-3-3---------|



|------------------------------------------------------------------------------------------|
|------------------------------------------------------------------------------------------|
|-3----3-3----3-3-3----5----5-5----5-5-5----7----------------------------------------------|
|-3----3-3----3-3-3----5----5-5----5-5-5----7----------------------------------------------|
|-1----1-1----1-1-1----3----3-3----3-3-3----5----------------------------------------------|
|------------------------------------------------------------------------------------------|


Bridge

|------------------------------------------------------------------------------------------|
|------------------------------------------------------------------------------------------|
|------------------------------------------------------------------------------------------|
|--7-p-0----------3-p-0----------2p0----------3-p-0---2-p-0----~4--------1----1-1---1-1----|
|------------------------------------------------------------------------1----1-1---1-1----|
|---------0--0-----------0--0---------0--0-------------------------------1----1-1---1-1----|
          .  .           .  .         .  .                               .    . .   . .


|------------------------------------------------------------------------------------------|
|------------------------------------------------------------------------------------------|
|-----------------------------------3------------------------------------------------------|
|-1-----1-1-1---1-1--1-1--------7-------7------1-----1-1-1---1-1--1-1----------------------|
|-1-----1-1-1---1-1--1-1-----------------------1-----1-1-1---1-1--1-1----------------------|
|-1-----1-1-1---1-1--1-1-----------------------1-----1-1-1---1-1--1-1----------------------|
  .     . . .   . .  . .                       .     . . .   . .  . .


|------------------------------------------------------------------------------------------|
|-----------------------------------2------------------------------------------------------|
|-------------------------------5-------5--------------------------------------------------|
|-1-----1-1-1---1-1--1-1-----------------------1-----1-1-1---1-1--1-1----------------------|
|-1-----1-1-1---1-1--1-1-----------------------1-----1-1-1---1-1--1-1----------------------|
|-1-----1-1-1---1-1--1-1-----------------------1-----1-1-1---1-1--1-1----------------------|
  .     . . .   . .  . .                       .     . . .   . .  . .


|------------------------------------------------------------------------------------------|
|------------------------------------------------------------------------------------------|
|------------------------------------------------------------------------------------------|
|-0-----0-0---0-0---0----3--/--5---2-------------------------------------------------------|
|-0-----0-0---0-0---0----1--/--3---0-------------------------------------------------------|
|-0-----0-0---0-0---0----------------------------------------------------------------------|
  .     . .   . .


|------------------------------------------------------------------------------------------|
|------------------------------------------------------------------------------------------|
|------------------------------------------------------------------------------------------|
|-0----3--/--5---2-------0--3-/-5--2----------0---3--/--5---2------------------------------|x4
|-0----1--/--3---0-------0--1-/-3--0----------0---1--/--3---0------------------------------|
|-0------------------0-0-0------------0-0-0-0-0----------------0-0-0-0-0-0-0-0-------------| 
                     . .              . . . .                  . . . . . . . .

Synth Solo Guitar(my favorite part)


|------------------------------------------------------------------------------------------|
|------------------------------------------------------------------------------------------|
|------------------------------------------------------------------------------------------|
|-3-3-3-3--3---3-3--3---3-3----5---7----5-5-5-5--5---5-5--5---5-5----8---7-----------------|
|-1-1-1-1--1---1-1--1---1-1-------------3-3-3-3--3---3-3--3---3-3--------------------------|
|------------------------------------------------------------------------------------------|
  . . . .  .   . .  .   . .             . . . .  .   . .  .   . .


|------------------------------------------------------------------------------------------|
|------------------------------------------------------------------------------------------|
|------------------------------------------------------------------------------------------|
|-7-7-7-7--7---7-7--7---7-7----5---7----10--0----7--0----5--0----3--0----------------------|
|-5-5-5-5--5---5-5--5---5-5----------------------------------------------------------------|
|------------------------------------------------------------------------------------------|
  . . . .  .   . .  .   . . 


|------------------------------------------------------------------------------------------|
|------------------------------------------------------------------------------------------|
|------------------------------------------------------------------------------------------|
|-3-3-3-3--3---3-3--3---3-3----5---7----5-5-5-5--5---5-5--5---5-5----8---7-----------------|
|-1-1-1-1--1---1-1--1---1-1-------------3-3-3-3--3---3-3--3---3-3--------------------------|
|------------------------------------------------------------------------------------------|
  . . . .  .   . .  .   . .             . . . .  .   . .  .   . .


|---------------------------------------------------5---5---5------------------------------|
|-6---------6-------6-------6-------6-------6---6---5---5---5------------------------------|
|---------------------------------------------------5---5---5------------------------------|
|-7---------7-------7-------7-------7-------7---7---7---7---7------------------------------|
|-5---------5-------5-------5-------5-------5---5---5---5---5------------------------------|
|------------------------------------------------------------------------------------------|



|------------------------------------------------------------------------------------------|
|-------6---6---------6-----6-------6---------6-----6--6--6--6--6--------------------------|
|------------------------------------------------------------------------------------------|
|-------7---7---------7-----7-------7---------7-----7--7--7--7--7--------------------------|
|-------5---5---------5-----5-------5---------5-----5--5--5--5--5--------------------------|
|------------------------------------------------------------------------------------------|

Final Verse and the best so far (there is no use moving back, you can't trace back your path...)

|------------------------------------------------------------------------------------------|
|---6---6----6--6--6-----6---6----6--6--6--------------------------5---5----5--5--5--------|
|-*---*---*------------*---*---*------------*-3-*-3-*--3--3--3---*---*---*-----------------|
|-*-7-*-7-*--7--7--7---*-7-*-7-*--7--7--7---*-3-*-3-*--3--3--3---*-5-*-5-*--5--5--5--------|x4
|-*-5-*-5-*--5--5--5---*-5-*-5-*--5--5--5---*-1-*-1-*--1--1--1---*-3-*-3-*--3--3--3--------|
|------------------------------------------------------------------------------------------| 

(*=muted strumming)

|------------------------------------------------------------------------------------------|
|------------------------------------------------------------------------------------------|
|------------------------------------------------------------------------------------------|
|------------------------------------------------------------------------------------------|
|------------------------------------------------------------------------------------------|
|---------------------------------------------------*~~~~~~~~~~~~~~pick scratch------------|


Outro(Life is a voyage, won'end until we die..)

|------------------------------------------------------------------------------------------|
|------------------------------------------------------------------------------------------|
|--------------------3---3--*----3-----------------------5---5--*----5---------------------|
|--0---0--*----0-----3---3--*----3-----3---3--*----3-----5---5--*----5---------------------|x2
|--0---0--*----0-----1---1--*----1-----3---3--*----3-----3---3--*----3---------------------|
|--0---0--*----0-----------------------3---3--*----3---------------------------------------| 



|------------------------------------------------------------------------------------------|
|------------------------------------------------------------------------------------------|
|------------------3---3---3---3-------------------5---5---5---5---------------------------|
|--0---0---0---0---3---3---3---3---3---3---3---3---5---5---5---5---------------------------|x2
|--0---0---0---0---1---1---1---1---3---3---3---3---3---3---3---3---------------------------|
|--0---0---0---0-------------------3---3---3---3-------------------------------------------| 


|------------------------------------------------------------------------------------------|
|------------------------------------------------------------------------------------------|
|------------------------------------------------------------------------------------------|
|--7-0---0----3-0---0----2-0---0----3--0--2--0----0----0----------0------------------------|
|-------------------------------------------------0----0----------0------------------------|
|-------------------------------------------------0----0----------0------------------------| 

This is it, enjoy playing it as i enjoyed playing and tabbing it! mail me for any 





Comments


Popular Misc Soundtrack tabs & chords
A Mighty Wind - Loco Man Chords
Kiss The Girl Theme Chords
A Knights Tale - Pieces Tabs
Braveheart Theme 2 Tabs
Close Encounter Of The Third Kind Intro Tabs
Coors Light Commercial Tabs
Flintstones Theme Tabs
Forrest Gump Theme Intro Tabs
Grindhouse Theme Tabs
Jurassic Park Theme 2 Tabs


Song lyrics



↑ Back to top | Tablatures and chords are parodies/interpretations of the original songs. You may use it for private study, scholarship, research or language learning purposes only
© 2014 AZChords.com Contact us | Privacy policy | DMCA | Add/correct tabs | Request tabs | Top 50 tabs