» » »

Father Ted Tabs (ver.2)

Artists:  A B C D E F G H I J K L M N O P Q R S T U V W X Y Z # 

Father Ted Tabs (ver.2)

Misc Soundtrack
Rating:
0/5 (0 votes)

Tabs too difficult? Try these video lessons and learn fast.
                (Theme)
#------------------------------------------------------------------------------##

Father Ted Theme Tune

part a
E|------------------------------------------------------------------|
B|------------------------------------------------------------------|
G|-5----------------------------------------------5--7--5-----5-----|
D|---7--5--7---5------5---------------------5--7-----------7--------|
A|----------------7------7--5---7-----------------------------------|
E|------------------------------------------------------------------|
part b
E|------------------------------------------------------------------|
B|------------------------------------------------------------------|
G|------------------------------------------------------------------|
D|7-5--7--5-----5---------------------------------------------------|
A|----------7-------------------------------------------------------|
E|------------------------------------------------------------------|
part c
E|------------------------------------------------------------------|
B|------------------------------------------------------------------|
G|------------------------------------------------------------------|
D|7--------5s10-----------------------------------------------------|
A|------------------------------------------------------------------|
E|------------------------------------------------------------------|


play part a, then part b, then part a again then part c and then make the noise
of an airplane/ufo type thingy crashing by sticking the head of your guitar
into your amp.Watch the programme for the rythm and to make yourself laugh...


cheerio now.

28 August 2001
            
Tabs too difficult? Try these video lessons and learn fast.




comments powered by Disqus
↑ Back to top | Tablatures and chords are parodies/interpretations of the original songs. You may use it for private study, scholarship, research or language learning purposes only