» » »

Misc Soundtrack, Extreme Ghostbusters Tabs (ver.1)

Artists:  A B C D E F G H I J K L M N O P Q R S T U V W X Y Z # 

Extreme Ghostbusters Tabs (ver.1)

Misc Soundtrack Tabs
 Rating:
4/5 (4 votes)
Extreme Ghostbusters lessons Tabs too difficult? Try these video lessons and learn fast
                (Theme)

Tuning: Standard


Intro Riff (Palm Mute) (x16)
e|------------------------------------------|
B|------------------------------------------|
G|----------2-------------------------------|
D|-----4-0-------2--------------------------|
A|---2-------0-2----------------------------|
E|-0----------------------------------------|


Lead Guitar (x2)
e|-7----7----7----7----7----------------------|
B|-8----8----8----8----8----------------------|
G|----9----9----9----9----9-7h8h9-------------|
D|--------------------------------------------|
A|--------------------------------------------|
E|--------------------------------------------|

Rhythm Guitar
e|----------------------------------------|
B|----------------------------------------|
G|-9-----7----6-----2---------------------|
D|-9-----7----6-----2---------------------|
A|-7-----5----4-----0---------------------|
E|----------------------------------------|

End Riff
e|-----------------------------------------------|
B|-----8-7------------------------7--------------|
G|-9-7-----7~------9-9----9-7-7-7-9~-------------|
D|-9-7--------------9-9----9-7-------------------|
A|-7-5--------------7-7----7-5-------------------|
E|-----------------------------------------------|

End Lead
e|------------------------------------------------|
B|-8p7p5--8p7p5--8p7p5--8p7p5---------------------|
G|--------7---------7---------7---------7---------|
D|------------------------------------------------|
A|------------------------------------------------|
E|------------------------------------------------|

End Chord
e|--------------------------------------|
B|--------------------------------------|
G|-9-9\---------------------------------|
D|-9-9\---------------------------------|
A|-7-7\---------------------------------|
E|--------------------------------------|


| / slide up
| \ slide down
| h hammer-on
| p pull-off
| ~ vibrato
| + harmonic
| x Mute note
=========================================

s=112b1763fd630129bcdeb91b5b5db178&p=116632&postcount=4
            
Submit corrections

comments powered by Disqus
↑ Back to top | Misc Soundtrack Tabs for Extreme Ghostbusters. Lyrics for acoustic guitar and electric guitar. Tablatures and chords are parodies/interpretations of the original songs. You may use it for private study, scholarship, research or language learning purposes only