>
 >
Enter The East - Metin 2

Enter The East - Metin 2 Guitar Tabs

Misc Soundtrack - Enter The East - Metin 2 chords, tabs, tablatures, lyrics

Guitar lessons | Add/correct | Request | Top 50 tabs Artists:  A B C D E F G H I J K L M N O P Q R S T U V W X Y Z 0-9

Enter The East - Metin 2 Guitar Tabs – Misc Soundtrack

CD, Sheet music, Poster

Do you like Enter The East - Metin 2? Share with your friends now
Tabs

Just a track from M2 soundtrack...I have already learned it but since they removed 
the tabs from megaupload I wanted to help others figure it out too by uploading 
the tabs here ^^...


=-=-= Legend =-=-=
~  - Let ring
s  - Slide to required note
h  - Hammer on
p  - Pull off
b  - Bend to required pith
r  - Bend Return to required pitch
v  - Vibrato

Tuning: Standard - Low to High (E-A-D-G-B-e)

Timing: Slow-intermediate , 68-75 is a safe zone if you wanna
follow the metronome...but the timing is fairly easy...

Its ok to start earlier if you like,but the guitar
part beggins from 1:18

x x x x x x x x x x x x x x x x x x x x x x x x x x x x x x x x x x x x x

INTRO = 1:18 - 1:42


e|----------------|----------------|----10h12-10-9--|----------9h10v-|
B|-12-14-14-12h14v|-12-12--11h12b--|-10v----------10|10-12v-12-------|
G|----------------|----------------|----------------|----------------|
D|----------------|----------------|----------------|----------------|
A|----------------|----------------|----------------|----------------|
E|----------------|----------------|----------------|----------------|

e|----------------|----------------|----------------|
B|-10-12-10v-9----|-9v--9----9-----|-13v-14v--------|
G|-------------11v|-------11-------|----------------|
D|----------------|----------------|----------------|
A|----------------|----------------|----------------|
E|----------------|----------------|----------------|

x x x x x x x x x x x x x x x x x x x x x x x x x x x x x x x x x x x x x

Verse 1 = 1:42 - 2:06

e|----------------|----------------|----------------|----------------|
B|----9-10v-------|-10-12-9v-------|-9-10-----------|-9b10r9---------|
G|--11------------|----------------|------11v-------|--------11-9v---|
D|-11-------------|----------------|----------------|----------------|
A|----------------|----------------|----------------|----------------|
E|----------------|----------------|----------------|----------------|

e|12b14-12-10-9-10|-9h10p9---9-----|----------------|-11-8h11p8------|
B|----------------|--------12-12-10|-9h10p9---9-----|-----------9----|
G|----------------|----------------|--------11-11v--|------------8---|
D|----------------|----------------|----------------|-------------10v|
A|----------------|----------------|----------------|----------------|
E|----------------|----------------|----------------|----------------|

e|----------------|
B|----------------|
G|-4s6-6-8-6v-----|
D|----------------|
A|----------------|
E|----------------|


x x x x x x x x x x x x x x x x x x x x x x x x x x x x x x x x x x x x x

Verse 2 = 2:07 - 2:19

e|---14-16b17r16--|-16-14-16-14----|----------------|----------------|
B|-14-------------|----------------|-17-15-15h17v---|-17b18r17---12--|
G|----------------|----------------|----------------|----------14----|
D|----------------|----------------|----------------|----------------|
A|----------------|----------------|----------------|----------------|
E|----------------|----------------|----------------|----------------|

e|----------------|----------------|----------------|----------------|
B|---12--12--12v--|----------------|----------------|----------------|
G|-14--14--14-----|----------------|-0-0h2v---------|-4-2-2h4-2------|
D|----------------|----------------|---------2-4----|----------------|
A|----------------|----------------|--------4-------|----------------|
E|----------------|----------------|----------------|----------------|

e|----5-----------|-7b9r7-5-5h7----|
B|-2-5-5----------|------------5-5v|
G|----------------|----------------|
D|----------------|----------------|
A|----------------|----------------|
E|----------------|----------------|

x x x x x x x x x x x x x x x x x x x x x x x x x x x x x x x x x x x x x

Verse 3 = 2:20 - 2:31

e|----------------|----------------|----------------|----------------|
B|-s5-7-10-9-12-10|-14-12-15-14-17v|-17-15-14-15----|-14h15p14-------|
G|----------------|----------------|----------------|----------------|
D|----------------|----------------|----------------|----------------|
A|----------------|----------------|----------------|----------------|
E|----------------|----------------|----------------|----------------|

e|----------------|----------------|-11-8h11p8------|-14-11h14p11----|
B|----------------|----------------|-----------9----|-------------13-|
G|16-14-13-14-----|-16-14v---------|----------------|----------------|
D|----------------|----------------|----------------|----------------|
A|----------------|----------------|----------------|----------------|
E|----------------|----------------|----------------|----------------|

e|-17-14h17p14----|-14-16-17-19v---|
B|-------------16-|----------------|
G|----------------|----------------|
D|----------------|----------------|
A|----------------|----------------|
E|----------------|----------------|

x x x x x x x x x x x x x x x x x x x x x x x x x x x x x x x x x x x x x

I couldn't figure out the next part but the ending is same as the intro...
Have fun playing!!!^^





Comments


Popular Misc Soundtrack tabs & chords
Exodus Theme Chords
Kamen Rider Black - Long Long Ago 20th Century Chords
Aladdin - A Whole New World Tabs
Badmaash Company - Fakeera Tabs
Blues Brothers Theme Tabs
Ellinia Theme Tabs
Gremlins Theme Tabs
I Can Show You The World Tabs
Jaws Tabs
Theme From Great Expectations Kissing In The Rain Tabs


Song lyrics



↑ Back to top | Tablatures and chords are parodies/interpretations of the original songs. You may use it for private study, scholarship, research or language learning purposes only
© 2014 AZChords.com Contact us | Privacy policy | DMCA | Add/correct tabs | Request tabs | Top 50 tabs